ISO-10303-21;
HEADER;
FILE_DESCRIPTION (( 'STEP AP203' ),
    '1' );
FILE_NAME ('06b6.STEP',
    '2022-07-07T12:51:10',
    ( '' ),
    ( '' ),
    'SwSTEP 2.0',
    'SolidWorks 2019',
    '' );
FILE_SCHEMA (( 'CONFIG_CONTROL_DESIGN' ));
ENDSEC;

DATA;
#1 = CYLINDRICAL_SURFACE ( 'NONE', #92, 4.000000000000000000 ) ;
#2 = CC_DESIGN_APPROVAL ( #271, ( #39 ) ) ;
#3 = CARTESIAN_POINT ( 'NONE',  ( 0.000000000000000000, 0.000000000000000000, 3.000000000000000000 ) ) ;
#4 = DIRECTION ( 'NONE',  ( 0.000000000000000000, 0.000000000000000000, 1.000000000000000000 ) ) ;
#5 = VECTOR ( 'NONE', #285, 1000.000000000000000 ) ;
#6 = ORIENTED_EDGE ( 'NONE', *, *, #122, .F. ) ;
#7 = ORIENTED_EDGE ( 'NONE', *, *, #174, .T. ) ;
#8 = ORIENTED_EDGE ( 'NONE', *, *, #132, .T. ) ;
#9 = VECTOR ( 'NONE', #29, 1000.000000000000000 ) ;
#10 = LOCAL_TIME ( 14, 51, 10.00000000000000000, #228 ) ;
#11 = ADVANCED_FACE ( 'NONE', ( #178 ), #281, .T. ) ;
#12 = APPROVAL_STATUS ( 'not_yet_approved' ) ;
#13 = DATE_TIME_ROLE ( 'creation_date' ) ;
#14 = APPROVAL_ROLE ( '' ) ;
#15 = CC_DESIGN_APPROVAL ( #256, ( #84 ) ) ;
#16 = ORIENTED_EDGE ( 'NONE', *, *, #173, .F. ) ;
#17 = VERTEX_POINT ( 'NONE', #185 ) ;
#18 = ADVANCED_FACE ( 'NONE', ( #71, #279 ), #119, .T. ) ;
#19 = ADVANCED_BREP_SHAPE_REPRESENTATION ( '06b6', ( #272, #136 ), #176 ) ;
#20 = PERSON_AND_ORGANIZATION ( #106, #183 ) ;
#21 = DIRECTION ( 'NONE',  ( 1.000000000000000000, 0.000000000000000000, -0.000000000000000000 ) ) ;
#22 = DIRECTION ( 'NONE',  ( -0.000000000000000000, -0.000000000000000000, -1.000000000000000000 ) ) ;
#23 = CARTESIAN_POINT ( 'NONE',  ( 0.000000000000000000, 0.000000000000000000, 203.0000000000000000 ) ) ;
#24 = CIRCLE ( 'NONE', #51, 4.000000000000000000 ) ;
#25 = CARTESIAN_POINT ( 'NONE',  ( -2.000000000000000000, 0.000000000000000000, 203.0000000000000000 ) ) ;
#26 = CARTESIAN_POINT ( 'NONE',  ( 0.000000000000000000, 0.000000000000000000, 3.000000000000000000 ) ) ;
#27 = AXIS2_PLACEMENT_3D ( 'NONE', #266, #4, #121 ) ;
#28 = CARTESIAN_POINT ( 'NONE',  ( 0.000000000000000000, 0.000000000000000000, 3.200000000000008171 ) ) ;
#29 = DIRECTION ( 'NONE',  ( -0.000000000000000000, -0.000000000000000000, -1.000000000000000000 ) ) ;
#30 = ADVANCED_FACE ( 'NONE', ( #263 ), #117, .T. ) ;
#31 = ORIENTED_EDGE ( 'NONE', *, *, #138, .T. ) ;
#32 = EDGE_CURVE ( 'NONE', #113, #187, #77, .T. ) ;
#33 = DATE_AND_TIME ( #153, #10 ) ;
#34 = PERSON_AND_ORGANIZATION ( #106, #183 ) ;
#35 = PERSON_AND_ORGANIZATION ( #106, #183 ) ;
#36 = LINE ( 'NONE', #135, #179 ) ;
#37 = SHAPE_DEFINITION_REPRESENTATION ( #79, #19 ) ;
#38 = DIRECTION ( 'NONE',  ( 1.000000000000000000, 0.000000000000000000, -0.000000000000000000 ) ) ;
#39 = PRODUCT_DEFINITION ( 'NEZNÁMÝ', '', #149, #55 ) ;
#40 = CARTESIAN_POINT ( 'NONE',  ( 0.000000000000000000, 0.000000000000000000, 3.200000000000008171 ) ) ;
#41 = ORIENTED_EDGE ( 'NONE', *, *, #81, .T. ) ;
#42 = CARTESIAN_POINT ( 'NONE',  ( -2.000000000000000000, 0.000000000000000000, 203.0000000000000000 ) ) ;
#43 = ORIENTED_EDGE ( 'NONE', *, *, #54, .T. ) ;
#44 = CARTESIAN_POINT ( 'NONE',  ( 4.000000000000000000, 4.898587196589412829E-16, 3.000000000000000000 ) ) ;
#45 = DIRECTION ( 'NONE',  ( 1.000000000000000000, 0.000000000000000000, -0.000000000000000000 ) ) ;
#46 = CIRCLE ( 'NONE', #221, 2.000000000000000000 ) ;
#47 = DIRECTION ( 'NONE',  ( 1.000000000000000000, 0.000000000000000000, 0.000000000000000000 ) ) ;
#48 = TOROIDAL_SURFACE ( 'NONE', #301, 2.200000000000000178, 0.2000000000000000111 ) ;
#49 = DIRECTION ( 'NONE',  ( -1.000000000000000000, 0.000000000000000000, 0.000000000000000000 ) ) ;
#50 = CARTESIAN_POINT ( 'NONE',  ( 0.000000000000000000, 0.000000000000000000, 203.0000000000000000 ) ) ;
#51 = AXIS2_PLACEMENT_3D ( 'NONE', #144, #244, #192 ) ;
#52 = EDGE_CURVE ( 'NONE', #110, #115, #246, .T. ) ;
#53 = APPROVAL_PERSON_ORGANIZATION ( #20, #271, #116 ) ;
#54 = EDGE_CURVE ( 'NONE', #241, #200, #36, .T. ) ;
#55 = DESIGN_CONTEXT ( 'detailed design', #158, 'design' ) ;
#56 = ADVANCED_FACE ( 'NONE', ( #96 ), #48, .F. ) ;
#57 = ORIENTED_EDGE ( 'NONE', *, *, #132, .F. ) ;
#58 = ADVANCED_FACE ( 'NONE', ( #137 ), #62, .F. ) ;
#59 = AXIS2_PLACEMENT_3D ( 'NONE', #28, #99, #288 ) ;
#60 = PERSON_AND_ORGANIZATION_ROLE ( 'creator' ) ;
#61 = CIRCLE ( 'NONE', #269, 2.200000000000000178 ) ;
#62 = PLANE ( 'NONE',  #83 ) ;
#63 = APPROVAL_DATE_TIME ( #180, #256 ) ;
#64 = ORIENTED_EDGE ( 'NONE', *, *, #150, .T. ) ;
#65 = APPLICATION_PROTOCOL_DEFINITION ( 'international standard', 'config_control_design', 1994, #158 ) ;
#66 = CARTESIAN_POINT ( 'NONE',  ( 0.000000000000000000, 0.000000000000000000, 203.0000000000000000 ) ) ;
#67 = DIRECTION ( 'NONE',  ( -1.000000000000000000, 0.000000000000000000, 0.000000000000000000 ) ) ;
#68 = DIRECTION ( 'NONE',  ( -0.000000000000000000, -0.000000000000000000, -1.000000000000000000 ) ) ;
#69 = EDGE_CURVE ( 'NONE', #200, #17, #114, .T. ) ;
#70 = CARTESIAN_POINT ( 'NONE',  ( 0.000000000000000000, 0.000000000000000000, 0.000000000000000000 ) ) ;
#71 = FACE_BOUND ( 'NONE', #233, .T. ) ;
#72 = DIRECTION ( 'NONE',  ( -0.000000000000000000, -0.000000000000000000, -1.000000000000000000 ) ) ;
#73 = CARTESIAN_POINT ( 'NONE',  ( -2.200000000000000178, 2.694222958124177006E-16, 3.000000000000004441 ) ) ;
#74 = PRODUCT_RELATED_PRODUCT_CATEGORY ( 'detail', '', ( #82 ) ) ;
#75 = CARTESIAN_POINT ( 'NONE',  ( 0.000000000000000000, 0.000000000000000000, 3.000000000000000000 ) ) ;
#76 = LINE ( 'NONE', #25, #9 ) ;
#77 = CIRCLE ( 'NONE', #252, 4.000000000000000000 ) ;
#78 = CC_DESIGN_DATE_AND_TIME_ASSIGNMENT ( #33, #13, ( #39 ) ) ;
#79 = PRODUCT_DEFINITION_SHAPE ( 'NONE', 'NONE',  #39 ) ;
#80 = COORDINATED_UNIVERSAL_TIME_OFFSET ( 1, 0, .AHEAD. ) ;
#81 = EDGE_CURVE ( 'NONE', #159, #187, #219, .T. ) ;
#82 = PRODUCT ( '06b6', '06b6', '', ( #282 ) ) ;
#83 = AXIS2_PLACEMENT_3D ( 'NONE', #89, #181, #38 ) ;
#84 = SECURITY_CLASSIFICATION ( '', '', #177 ) ;
#85 = APPROVAL_DATE_TIME ( #296, #227 ) ;
#86 = CARTESIAN_POINT ( 'NONE',  ( -2.200000000000000178, 2.694222958124177006E-16, 3.200000000000008171 ) ) ;
#87 = ADVANCED_FACE ( 'NONE', ( #268 ), #191, .F. ) ;
#88 = APPROVAL_ROLE ( '' ) ;
#89 = CARTESIAN_POINT ( 'NONE',  ( 0.000000000000000000, 0.000000000000000000, 0.000000000000000000 ) ) ;
#90 = CARTESIAN_POINT ( 'NONE',  ( 2.000000000000000000, 2.449293598294706414E-16, 3.200000000000008171 ) ) ;
#91 = ORIENTED_EDGE ( 'NONE', *, *, #32, .F. ) ;
#92 = AXIS2_PLACEMENT_3D ( 'NONE', #3, #128, #290 ) ;
#93 = DIRECTION ( 'NONE',  ( 0.000000000000000000, 0.000000000000000000, 1.000000000000000000 ) ) ;
#94 =( NAMED_UNIT ( * ) PLANE_ANGLE_UNIT ( ) SI_UNIT ( $, .RADIAN. ) );
#95 = AXIS2_PLACEMENT_3D ( 'NONE', #161, #182, #45 ) ;
#96 = FACE_OUTER_BOUND ( 'NONE', #194, .T. ) ;
#97 = LINE ( 'NONE', #44, #5 ) ;
#98 = CARTESIAN_POINT ( 'NONE',  ( -4.000000000000000000, 0.000000000000000000, 3.000000000000000000 ) ) ;
#99 = DIRECTION ( 'NONE',  ( 0.000000000000000000, 0.000000000000000000, 1.000000000000000000 ) ) ;
#100 = CC_DESIGN_SECURITY_CLASSIFICATION ( #84, ( #149 ) ) ;
#101 = DIRECTION ( 'NONE',  ( 0.000000000000000000, -1.000000000000000000, 0.000000000000000000 ) ) ;
#102 = EDGE_LOOP ( 'NONE', ( #6, #43, #154, #57 ) ) ;
#103 = DIRECTION ( 'NONE',  ( 1.000000000000000000, 0.000000000000000000, 0.000000000000000000 ) ) ;
#104 = ORIENTED_EDGE ( 'NONE', *, *, #111, .T. ) ;
#105 = ORIENTED_EDGE ( 'NONE', *, *, #69, .F. ) ;
#106 = PERSON ( 'NEURÈENÝ', 'NEURÈENÝ', 'NEURÈENÝ', ('NEURÈENÝ'), ('NEURÈENÝ'), ('NEURÈENÝ') ) ;
#107 = ORIENTED_EDGE ( 'NONE', *, *, #52, .T. ) ;
#108 = PERSON_AND_ORGANIZATION ( #106, #183 ) ;
#109 = CALENDAR_DATE ( 2022, 7, 7 ) ;
#110 = VERTEX_POINT ( 'NONE', #267 ) ;
#111 = EDGE_CURVE ( 'NONE', #187, #113, #261, .T. ) ;
#112 = CALENDAR_DATE ( 2022, 7, 7 ) ;
#113 = VERTEX_POINT ( 'NONE', #245 ) ;
#114 = CIRCLE ( 'NONE', #289, 0.2000000000000000944 ) ;
#115 = VERTEX_POINT ( 'NONE', #73 ) ;
#116 = APPROVAL_ROLE ( '' ) ;
#117 = CYLINDRICAL_SURFACE ( 'NONE', #277, 2.000000000000000000 ) ;
#118 = FACE_OUTER_BOUND ( 'NONE', #248, .T. ) ;
#119 = PLANE ( 'NONE',  #95 ) ;
#120 = PERSON_AND_ORGANIZATION_ROLE ( 'design_owner' ) ;
#121 = DIRECTION ( 'NONE',  ( 1.000000000000000000, 0.000000000000000000, 0.000000000000000000 ) ) ;
#122 = EDGE_CURVE ( 'NONE', #241, #208, #145, .T. ) ;
#123 = DIRECTION ( 'NONE',  ( -0.000000000000000000, -0.000000000000000000, -1.000000000000000000 ) ) ;
#124 = AXIS2_PLACEMENT_3D ( 'NONE', #163, #291, #49 ) ;
#125 = DIRECTION ( 'NONE',  ( 0.000000000000000000, 0.000000000000000000, 1.000000000000000000 ) ) ;
#126 = LOCAL_TIME ( 14, 51, 10.00000000000000000, #134 ) ;
#127 = ADVANCED_FACE ( 'NONE', ( #270 ), #167, .T. ) ;
#128 = DIRECTION ( 'NONE',  ( -0.000000000000000000, -0.000000000000000000, -1.000000000000000000 ) ) ;
#129 = VERTEX_POINT ( 'NONE', #218 ) ;
#130 = CIRCLE ( 'NONE', #175, 2.000000000000000000 ) ;
#131 = PERSON_AND_ORGANIZATION_ROLE ( 'creator' ) ;
#132 = EDGE_CURVE ( 'NONE', #208, #110, #76, .T. ) ;
#133 = DATE_AND_TIME ( #109, #250 ) ;
#134 = COORDINATED_UNIVERSAL_TIME_OFFSET ( 1, 0, .AHEAD. ) ;
#135 = CARTESIAN_POINT ( 'NONE',  ( 2.000000000000000000, 2.449293598294706414E-16, 203.0000000000000000 ) ) ;
#136 = AXIS2_PLACEMENT_3D ( 'NONE', #70, #184, #207 ) ;
#137 = FACE_OUTER_BOUND ( 'NONE', #292, .T. ) ;
#138 = EDGE_CURVE ( 'NONE', #129, #159, #24, .T. ) ;
#139 = CARTESIAN_POINT ( 'NONE',  ( 0.000000000000000000, 0.000000000000000000, 203.0000000000000000 ) ) ;
#140 = ORIENTED_EDGE ( 'NONE', *, *, #274, .F. ) ;
#141 = EDGE_LOOP ( 'NONE', ( #265, #31 ) ) ;
#142 = ORIENTED_EDGE ( 'NONE', *, *, #237, .T. ) ;
#143 = AXIS2_PLACEMENT_3D ( 'NONE', #86, #297, #276 ) ;
#144 = CARTESIAN_POINT ( 'NONE',  ( 0.000000000000000000, 0.000000000000000000, 3.000000000000000000 ) ) ;
#145 = CIRCLE ( 'NONE', #217, 2.000000000000000000 ) ;
#146 = CARTESIAN_POINT ( 'NONE',  ( -4.000000000000000000, 0.000000000000000000, 3.000000000000000000 ) ) ;
#147 = ORIENTED_EDGE ( 'NONE', *, *, #69, .T. ) ;
#148 = AXIS2_PLACEMENT_3D ( 'NONE', #190, #125, #286 ) ;
#149 = PRODUCT_DEFINITION_FORMATION_WITH_SPECIFIED_SOURCE ( 'LIBOVOLNÝ', '', #82, .NOT_KNOWN. ) ;
#150 = EDGE_CURVE ( 'NONE', #110, #200, #226, .T. ) ;
#151 = APPROVAL_PERSON_ORGANIZATION ( #108, #227, #14 ) ;
#152 = CC_DESIGN_PERSON_AND_ORGANIZATION_ASSIGNMENT ( #35, #60, ( #39 ) ) ;
#153 = CALENDAR_DATE ( 2022, 7, 7 ) ;
#154 = ORIENTED_EDGE ( 'NONE', *, *, #274, .T. ) ;
#155 = DIRECTION ( 'NONE',  ( -1.000000000000000000, 0.000000000000000000, 0.000000000000000000 ) ) ;
#156 = CARTESIAN_POINT ( 'NONE',  ( 0.000000000000000000, 0.000000000000000000, 3.000000000000000000 ) ) ;
#157 = DIRECTION ( 'NONE',  ( 0.000000000000000000, 0.000000000000000000, 1.000000000000000000 ) ) ;
#158 = APPLICATION_CONTEXT ( 'configuration controlled 3d designs of mechanical parts and assemblies' ) ;
#159 = VERTEX_POINT ( 'NONE', #98 ) ;
#160 = CC_DESIGN_PERSON_AND_ORGANIZATION_ASSIGNMENT ( #34, #202, ( #84 ) ) ;
#161 = CARTESIAN_POINT ( 'NONE',  ( 0.000000000000000000, 0.000000000000000000, 3.000000000000000000 ) ) ;
#162 = DIRECTION ( 'NONE',  ( 1.000000000000000000, 0.000000000000000000, 0.000000000000000000 ) ) ;
#163 = CARTESIAN_POINT ( 'NONE',  ( 0.000000000000000000, 0.000000000000000000, 203.0000000000000000 ) ) ;
#164 = APPLICATION_CONTEXT ( 'configuration controlled 3d designs of mechanical parts and assemblies' ) ;
#165 = DIRECTION ( 'NONE',  ( 0.000000000000000000, 0.000000000000000000, -1.000000000000000000 ) ) ;
#166 = AXIS2_PLACEMENT_3D ( 'NONE', #156, #209, #67 ) ;
#167 = CYLINDRICAL_SURFACE ( 'NONE', #124, 2.000000000000000000 ) ;
#168 = UNCERTAINTY_MEASURE_WITH_UNIT (LENGTH_MEASURE( 1.000000000000000082E-05 ), #264, 'distance_accuracy_value', 'NONE');
#169 = ADVANCED_FACE ( 'NONE', ( #216 ), #1, .T. ) ;
#170 = CC_DESIGN_PERSON_AND_ORGANIZATION_ASSIGNMENT ( #235, #120, ( #82 ) ) ;
#171 = LOCAL_TIME ( 14, 51, 10.00000000000000000, #80 ) ;
#172 = CALENDAR_DATE ( 2022, 7, 7 ) ;
#173 = EDGE_CURVE ( 'NONE', #159, #129, #211, .T. ) ;
#174 = EDGE_CURVE ( 'NONE', #17, #115, #254, .T. ) ;
#175 = AXIS2_PLACEMENT_3D ( 'NONE', #40, #186, #304 ) ;
#176 =( GEOMETRIC_REPRESENTATION_CONTEXT ( 3 ) GLOBAL_UNCERTAINTY_ASSIGNED_CONTEXT ( ( #168 ) ) GLOBAL_UNIT_ASSIGNED_CONTEXT ( ( #264, #94, #280 ) ) REPRESENTATION_CONTEXT ( 'NONE', 'WORKASPACE' ) );
#177 = SECURITY_CLASSIFICATION_LEVEL ( 'unclassified' ) ;
#178 = FACE_OUTER_BOUND ( 'NONE', #239, .T. ) ;
#179 = VECTOR ( 'NONE', #68, 1000.000000000000000 ) ;
#180 = DATE_AND_TIME ( #172, #171 ) ;
#181 = DIRECTION ( 'NONE',  ( 0.000000000000000000, 0.000000000000000000, 1.000000000000000000 ) ) ;
#182 = DIRECTION ( 'NONE',  ( 0.000000000000000000, 0.000000000000000000, 1.000000000000000000 ) ) ;
#183 = ORGANIZATION ( 'NEURÈENÝ', 'NEURÈENÝ', '' ) ;
#184 = DIRECTION ( 'NONE',  ( 0.000000000000000000, 0.000000000000000000, 1.000000000000000000 ) ) ;
#185 = CARTESIAN_POINT ( 'NONE',  ( 2.200000000000000178, 0.000000000000000000, 3.000000000000004441 ) ) ;
#186 = DIRECTION ( 'NONE',  ( 0.000000000000000000, 0.000000000000000000, 1.000000000000000000 ) ) ;
#187 = VERTEX_POINT ( 'NONE', #243 ) ;
#188 = CYLINDRICAL_SURFACE ( 'NONE', #166, 4.000000000000000000 ) ;
#189 = CARTESIAN_POINT ( 'NONE',  ( 0.000000000000000000, 0.000000000000000000, 3.000000000000000000 ) ) ;
#190 = CARTESIAN_POINT ( 'NONE',  ( 0.000000000000000000, 0.000000000000000000, 3.200000000000008171 ) ) ;
#191 = TOROIDAL_SURFACE ( 'NONE', #59, 2.200000000000000178, 0.2000000000000000111 ) ;
#192 = DIRECTION ( 'NONE',  ( 1.000000000000000000, 0.000000000000000000, 0.000000000000000000 ) ) ;
#193 = EDGE_CURVE ( 'NONE', #115, #17, #61, .T. ) ;
#194 = EDGE_LOOP ( 'NONE', ( #258, #140, #147, #249 ) ) ;
#195 = DIRECTION ( 'NONE',  ( 0.000000000000000000, 0.000000000000000000, 1.000000000000000000 ) ) ;
#196 = AXIS2_PLACEMENT_3D ( 'NONE', #189, #72, #47 ) ;
#197 = ORIENTED_EDGE ( 'NONE', *, *, #32, .T. ) ;
#198 = ORIENTED_EDGE ( 'NONE', *, *, #287, .F. ) ;
#199 = ADVANCED_FACE ( 'NONE', ( #118 ), #188, .T. ) ;
#200 = VERTEX_POINT ( 'NONE', #90 ) ;
#201 = DATE_AND_TIME ( #112, #273 ) ;
#202 = PERSON_AND_ORGANIZATION_ROLE ( 'classification_officer' ) ;
#203 = DATE_TIME_ROLE ( 'classification_date' ) ;
#204 = DIRECTION ( 'NONE',  ( -0.000000000000000000, -0.000000000000000000, -1.000000000000000000 ) ) ;
#205 = PERSON_AND_ORGANIZATION_ROLE ( 'design_supplier' ) ;
#206 = ORIENTED_EDGE ( 'NONE', *, *, #122, .T. ) ;
#207 = DIRECTION ( 'NONE',  ( 1.000000000000000000, 0.000000000000000000, 0.000000000000000000 ) ) ;
#208 = VERTEX_POINT ( 'NONE', #42 ) ;
#209 = DIRECTION ( 'NONE',  ( -0.000000000000000000, -0.000000000000000000, -1.000000000000000000 ) ) ;
#210 = DIRECTION ( 'NONE',  ( 1.000000000000000000, 0.000000000000000000, 0.000000000000000000 ) ) ;
#211 = CIRCLE ( 'NONE', #293, 4.000000000000000000 ) ;
#212 = DIRECTION ( 'NONE',  ( 0.000000000000000000, 0.000000000000000000, 1.000000000000000000 ) ) ;
#213 = EDGE_LOOP ( 'NONE', ( #247, #107, #236, #105 ) ) ;
#214 = CC_DESIGN_PERSON_AND_ORGANIZATION_ASSIGNMENT ( #278, #131, ( #149 ) ) ;
#215 = DIRECTION ( 'NONE',  ( 0.000000000000000000, 0.000000000000000000, 1.000000000000000000 ) ) ;
#216 = FACE_OUTER_BOUND ( 'NONE', #224, .T. ) ;
#217 = AXIS2_PLACEMENT_3D ( 'NONE', #50, #195, #103 ) ;
#218 = CARTESIAN_POINT ( 'NONE',  ( 4.000000000000000000, 4.898587196589412829E-16, 3.000000000000000000 ) ) ;
#219 = LINE ( 'NONE', #146, #234 ) ;
#220 = CC_DESIGN_PERSON_AND_ORGANIZATION_ASSIGNMENT ( #275, #205, ( #149 ) ) ;
#221 = AXIS2_PLACEMENT_3D ( 'NONE', #139, #212, #240 ) ;
#222 = ORIENTED_EDGE ( 'NONE', *, *, #54, .F. ) ;
#223 = ORIENTED_EDGE ( 'NONE', *, *, #111, .F. ) ;
#224 = EDGE_LOOP ( 'NONE', ( #251, #142, #197, #302 ) ) ;
#225 = PERSON_AND_ORGANIZATION ( #106, #183 ) ;
#226 = CIRCLE ( 'NONE', #148, 2.000000000000000000 ) ;
#227 = APPROVAL ( #255, 'NEURÈENÝ' ) ;
#228 = COORDINATED_UNIVERSAL_TIME_OFFSET ( 1, 0, .AHEAD. ) ;
#229 = CLOSED_SHELL ( 'NONE', ( #87, #127, #169, #199, #18, #58, #30, #11, #56 ) ) ;
#230 = CALENDAR_DATE ( 2022, 7, 7 ) ;
#231 = CARTESIAN_POINT ( 'NONE',  ( 0.000000000000000000, 0.000000000000000000, 3.200000000000008171 ) ) ;
#232 = CARTESIAN_POINT ( 'NONE',  ( 2.000000000000000000, 2.449293598294706414E-16, 203.0000000000000000 ) ) ;
#233 = EDGE_LOOP ( 'NONE', ( #7, #284 ) ) ;
#234 = VECTOR ( 'NONE', #123, 1000.000000000000000 ) ;
#235 = PERSON_AND_ORGANIZATION ( #106, #183 ) ;
#236 = ORIENTED_EDGE ( 'NONE', *, *, #174, .F. ) ;
#237 = EDGE_CURVE ( 'NONE', #129, #113, #97, .T. ) ;
#238 = APPLICATION_PROTOCOL_DEFINITION ( 'international standard', 'config_control_design', 1994, #164 ) ;
#239 = EDGE_LOOP ( 'NONE', ( #305, #206 ) ) ;
#240 = DIRECTION ( 'NONE',  ( 1.000000000000000000, 0.000000000000000000, 0.000000000000000000 ) ) ;
#241 = VERTEX_POINT ( 'NONE', #232 ) ;
#242 = AXIS2_PLACEMENT_3D ( 'NONE', #23, #300, #21 ) ;
#243 = CARTESIAN_POINT ( 'NONE',  ( -4.000000000000000000, 0.000000000000000000, 0.000000000000000000 ) ) ;
#244 = DIRECTION ( 'NONE',  ( 0.000000000000000000, 0.000000000000000000, 1.000000000000000000 ) ) ;
#245 = CARTESIAN_POINT ( 'NONE',  ( 4.000000000000000000, 4.898587196589412829E-16, 0.000000000000000000 ) ) ;
#246 = CIRCLE ( 'NONE', #143, 0.2000000000000000944 ) ;
#247 = ORIENTED_EDGE ( 'NONE', *, *, #150, .F. ) ;
#248 = EDGE_LOOP ( 'NONE', ( #298, #16, #41, #104 ) ) ;
#249 = ORIENTED_EDGE ( 'NONE', *, *, #193, .F. ) ;
#250 = LOCAL_TIME ( 14, 51, 10.00000000000000000, #299 ) ;
#251 = ORIENTED_EDGE ( 'NONE', *, *, #138, .F. ) ;
#252 = AXIS2_PLACEMENT_3D ( 'NONE', #257, #157, #210 ) ;
#253 = COORDINATED_UNIVERSAL_TIME_OFFSET ( 1, 0, .AHEAD. ) ;
#254 = CIRCLE ( 'NONE', #196, 2.200000000000000178 ) ;
#255 = APPROVAL_STATUS ( 'not_yet_approved' ) ;
#256 = APPROVAL ( #12, 'NEURÈENÝ' ) ;
#257 = CARTESIAN_POINT ( 'NONE',  ( 0.000000000000000000, 0.000000000000000000, 0.000000000000000000 ) ) ;
#258 = ORIENTED_EDGE ( 'NONE', *, *, #52, .F. ) ;
#259 = DIRECTION ( 'NONE',  ( 1.000000000000000000, 0.000000000000000000, 0.000000000000000000 ) ) ;
#260 = EDGE_LOOP ( 'NONE', ( #222, #198, #8, #64 ) ) ;
#261 = CIRCLE ( 'NONE', #27, 4.000000000000000000 ) ;
#262 = APPROVAL_STATUS ( 'not_yet_approved' ) ;
#263 = FACE_OUTER_BOUND ( 'NONE', #260, .T. ) ;
#264 =( LENGTH_UNIT ( ) NAMED_UNIT ( * ) SI_UNIT ( .MILLI., .METRE. ) );
#265 = ORIENTED_EDGE ( 'NONE', *, *, #173, .T. ) ;
#266 = CARTESIAN_POINT ( 'NONE',  ( 0.000000000000000000, 0.000000000000000000, 0.000000000000000000 ) ) ;
#267 = CARTESIAN_POINT ( 'NONE',  ( -2.000000000000000000, 0.000000000000000000, 3.200000000000008171 ) ) ;
#268 = FACE_OUTER_BOUND ( 'NONE', #213, .T. ) ;
#269 = AXIS2_PLACEMENT_3D ( 'NONE', #26, #22, #259 ) ;
#270 = FACE_OUTER_BOUND ( 'NONE', #102, .T. ) ;
#271 = APPROVAL ( #262, 'NEURÈENÝ' ) ;
#272 = MANIFOLD_SOLID_BREP ( 'Zaoblit1', #229 ) ;
#273 = LOCAL_TIME ( 14, 51, 10.00000000000000000, #253 ) ;
#274 = EDGE_CURVE ( 'NONE', #200, #110, #130, .T. ) ;
#275 = PERSON_AND_ORGANIZATION ( #106, #183 ) ;
#276 = DIRECTION ( 'NONE',  ( -1.000000000000000000, 1.224646799147353207E-16, 0.000000000000000000 ) ) ;
#277 = AXIS2_PLACEMENT_3D ( 'NONE', #66, #204, #155 ) ;
#278 = PERSON_AND_ORGANIZATION ( #106, #183 ) ;
#279 = FACE_OUTER_BOUND ( 'NONE', #141, .T. ) ;
#280 =( NAMED_UNIT ( * ) SI_UNIT ( $, .STERADIAN. ) SOLID_ANGLE_UNIT ( ) );
#281 = PLANE ( 'NONE',  #242 ) ;
#282 = MECHANICAL_CONTEXT ( 'NONE', #164, 'mechanical' ) ;
#283 = DIRECTION ( 'NONE',  ( 1.000000000000000000, 0.000000000000000000, 0.000000000000000000 ) ) ;
#284 = ORIENTED_EDGE ( 'NONE', *, *, #193, .T. ) ;
#285 = DIRECTION ( 'NONE',  ( -0.000000000000000000, -0.000000000000000000, -1.000000000000000000 ) ) ;
#286 = DIRECTION ( 'NONE',  ( 1.000000000000000000, 0.000000000000000000, 0.000000000000000000 ) ) ;
#287 = EDGE_CURVE ( 'NONE', #208, #241, #46, .T. ) ;
#288 = DIRECTION ( 'NONE',  ( 1.000000000000000000, 0.000000000000000000, 0.000000000000000000 ) ) ;
#289 = AXIS2_PLACEMENT_3D ( 'NONE', #307, #101, #165 ) ;
#290 = DIRECTION ( 'NONE',  ( -1.000000000000000000, 0.000000000000000000, 0.000000000000000000 ) ) ;
#291 = DIRECTION ( 'NONE',  ( -0.000000000000000000, -0.000000000000000000, -1.000000000000000000 ) ) ;
#292 = EDGE_LOOP ( 'NONE', ( #223, #91 ) ) ;
#293 = AXIS2_PLACEMENT_3D ( 'NONE', #75, #215, #162 ) ;
#294 = APPROVAL_PERSON_ORGANIZATION ( #225, #256, #88 ) ;
#295 = APPROVAL_DATE_TIME ( #201, #271 ) ;
#296 = DATE_AND_TIME ( #230, #126 ) ;
#297 = DIRECTION ( 'NONE',  ( 1.224646799147353207E-16, 1.000000000000000000, -0.000000000000000000 ) ) ;
#298 = ORIENTED_EDGE ( 'NONE', *, *, #237, .F. ) ;
#299 = COORDINATED_UNIVERSAL_TIME_OFFSET ( 1, 0, .AHEAD. ) ;
#300 = DIRECTION ( 'NONE',  ( 0.000000000000000000, 0.000000000000000000, 1.000000000000000000 ) ) ;
#301 = AXIS2_PLACEMENT_3D ( 'NONE', #231, #93, #283 ) ;
#302 = ORIENTED_EDGE ( 'NONE', *, *, #81, .F. ) ;
#303 = CC_DESIGN_APPROVAL ( #227, ( #149 ) ) ;
#304 = DIRECTION ( 'NONE',  ( 1.000000000000000000, 0.000000000000000000, 0.000000000000000000 ) ) ;
#305 = ORIENTED_EDGE ( 'NONE', *, *, #287, .T. ) ;
#306 = CC_DESIGN_DATE_AND_TIME_ASSIGNMENT ( #133, #203, ( #84 ) ) ;
#307 = CARTESIAN_POINT ( 'NONE',  ( 2.200000000000000178, 0.000000000000000000, 3.200000000000008171 ) ) ;
ENDSEC;
END-ISO-10303-21;
