ISO-10303-21;
HEADER;
FILE_DESCRIPTION (( 'STEP AP203' ),
    '1' );
FILE_NAME ('82f4.STEP',
    '2023-02-12T12:14:28',
    ( '' ),
    ( '' ),
    'SwSTEP 2.0',
    'SolidWorks 2019',
    '' );
FILE_SCHEMA (( 'CONFIG_CONTROL_DESIGN' ));
ENDSEC;

DATA;
#1 = APPROVAL ( #124, 'NEURÈENÝ' ) ;
#2 = PRODUCT_DEFINITION_FORMATION_WITH_SPECIFIED_SOURCE ( 'LIBOVOLNÝ', '', #169, .NOT_KNOWN. ) ;
#3 = COORDINATED_UNIVERSAL_TIME_OFFSET ( 1, 0, .AHEAD. ) ;
#4 = ORIENTED_EDGE ( 'NONE', *, *, #229, .F. ) ;
#5 = LOCAL_TIME ( 13, 14, 28.00000000000000000, #191 ) ;
#6 = DIRECTION ( 'NONE',  ( -0.000000000000000000, -0.000000000000000000, -1.000000000000000000 ) ) ;
#7 = CARTESIAN_POINT ( 'NONE',  ( 0.000000000000000000, 0.000000000000000000, 315.0000000000000000 ) ) ;
#8 = COORDINATED_UNIVERSAL_TIME_OFFSET ( 1, 0, .AHEAD. ) ;
#9 = CALENDAR_DATE ( 2023, 12, 2 ) ;
#10 = PERSON_AND_ORGANIZATION_ROLE ( 'design_owner' ) ;
#11 = AXIS2_PLACEMENT_3D ( 'NONE', #212, #52, #134 ) ;
#12 = LINE ( 'NONE', #95, #180 ) ;
#13 = ADVANCED_FACE ( 'NONE', ( #14 ), #234, .T. ) ;
#14 = FACE_OUTER_BOUND ( 'NONE', #105, .T. ) ;
#15 = AXIS2_PLACEMENT_3D ( 'NONE', #197, #237, #98 ) ;
#16 = EDGE_LOOP ( 'NONE', ( #177, #190, #72, #242 ) ) ;
#17 = FACE_OUTER_BOUND ( 'NONE', #37, .T. ) ;
#18 = AXIS2_PLACEMENT_3D ( 'NONE', #64, #138, #223 ) ;
#19 = CARTESIAN_POINT ( 'NONE',  ( 0.000000000000000000, 0.000000000000000000, 2.000000000000000000 ) ) ;
#20 = LINE ( 'NONE', #146, #238 ) ;
#21 = CC_DESIGN_PERSON_AND_ORGANIZATION_ASSIGNMENT ( #90, #152, ( #85 ) ) ;
#22 =( NAMED_UNIT ( * ) SI_UNIT ( $, .STERADIAN. ) SOLID_ANGLE_UNIT ( ) );
#23 = PERSON_AND_ORGANIZATION ( #92, #181 ) ;
#24 = VERTEX_POINT ( 'NONE', #171 ) ;
#25 = DIRECTION ( 'NONE',  ( -0.000000000000000000, -0.000000000000000000, -1.000000000000000000 ) ) ;
#26 = VECTOR ( 'NONE', #6, 1000.000000000000000 ) ;
#27 = APPROVAL_DATE_TIME ( #148, #73 ) ;
#28 = PRODUCT_DEFINITION_SHAPE ( 'NONE', 'NONE',  #85 ) ;
#29 = DIRECTION ( 'NONE',  ( 1.000000000000000000, 0.000000000000000000, 0.000000000000000000 ) ) ;
#30 = CARTESIAN_POINT ( 'NONE',  ( -2.500000000000000000, 0.000000000000000000, 2.000000000000000000 ) ) ;
#31 = VERTEX_POINT ( 'NONE', #255 ) ;
#32 = CC_DESIGN_PERSON_AND_ORGANIZATION_ASSIGNMENT ( #87, #45, ( #2 ) ) ;
#33 = PERSON_AND_ORGANIZATION ( #92, #181 ) ;
#34 = LOCAL_TIME ( 13, 14, 28.00000000000000000, #173 ) ;
#35 = CYLINDRICAL_SURFACE ( 'NONE', #210, 1.250000000000000000 ) ;
#36 = LINE ( 'NONE', #204, #26 ) ;
#37 = EDGE_LOOP ( 'NONE', ( #41, #244, #150, #136 ) ) ;
#38 =( NAMED_UNIT ( * ) PLANE_ANGLE_UNIT ( ) SI_UNIT ( $, .RADIAN. ) );
#39 = CC_DESIGN_DATE_AND_TIME_ASSIGNMENT ( #252, #249, ( #144 ) ) ;
#40 = DIRECTION ( 'NONE',  ( 1.000000000000000000, 0.000000000000000000, 0.000000000000000000 ) ) ;
#41 = ORIENTED_EDGE ( 'NONE', *, *, #178, .F. ) ;
#42 = DIRECTION ( 'NONE',  ( 0.000000000000000000, 0.000000000000000000, 1.000000000000000000 ) ) ;
#43 = DIRECTION ( 'NONE',  ( 0.000000000000000000, 0.000000000000000000, 1.000000000000000000 ) ) ;
#44 = CIRCLE ( 'NONE', #18, 1.250000000000000000 ) ;
#45 = PERSON_AND_ORGANIZATION_ROLE ( 'creator' ) ;
#46 = EDGE_CURVE ( 'NONE', #160, #175, #12, .T. ) ;
#47 = CARTESIAN_POINT ( 'NONE',  ( 0.000000000000000000, 0.000000000000000000, 315.0000000000000000 ) ) ;
#48 = PLANE ( 'NONE',  #15 ) ;
#49 = AXIS2_PLACEMENT_3D ( 'NONE', #58, #42, #40 ) ;
#50 = VERTEX_POINT ( 'NONE', #235 ) ;
#51 = DIRECTION ( 'NONE',  ( 1.000000000000000000, 0.000000000000000000, 0.000000000000000000 ) ) ;
#52 = DIRECTION ( 'NONE',  ( 0.000000000000000000, 0.000000000000000000, 1.000000000000000000 ) ) ;
#53 = APPLICATION_CONTEXT ( 'configuration controlled 3d designs of mechanical parts and assemblies' ) ;
#54 = FACE_OUTER_BOUND ( 'NONE', #205, .T. ) ;
#55 = DATE_AND_TIME ( #170, #5 ) ;
#56 = EDGE_CURVE ( 'NONE', #31, #175, #65, .T. ) ;
#57 = DIRECTION ( 'NONE',  ( -1.000000000000000000, 0.000000000000000000, 0.000000000000000000 ) ) ;
#58 = CARTESIAN_POINT ( 'NONE',  ( 0.000000000000000000, 0.000000000000000000, 2.000000000000000000 ) ) ;
#59 = DIRECTION ( 'NONE',  ( 1.000000000000000000, 0.000000000000000000, -0.000000000000000000 ) ) ;
#60 = CC_DESIGN_PERSON_AND_ORGANIZATION_ASSIGNMENT ( #231, #10, ( #169 ) ) ;
#61 = DIRECTION ( 'NONE',  ( -0.000000000000000000, -0.000000000000000000, -1.000000000000000000 ) ) ;
#62 = PERSON_AND_ORGANIZATION ( #92, #181 ) ;
#63 = DIRECTION ( 'NONE',  ( -0.000000000000000000, -0.000000000000000000, -1.000000000000000000 ) ) ;
#64 = CARTESIAN_POINT ( 'NONE',  ( 0.000000000000000000, 0.000000000000000000, 315.0000000000000000 ) ) ;
#65 = CIRCLE ( 'NONE', #213, 2.500000000000000000 ) ;
#66 = EDGE_CURVE ( 'NONE', #50, #31, #133, .T. ) ;
#67 = AXIS2_PLACEMENT_3D ( 'NONE', #106, #77, #186 ) ;
#68 = FACE_OUTER_BOUND ( 'NONE', #16, .T. ) ;
#69 = EDGE_CURVE ( 'NONE', #50, #160, #207, .T. ) ;
#70 = ORIENTED_EDGE ( 'NONE', *, *, #56, .T. ) ;
#71 = ADVANCED_FACE ( 'NONE', ( #68 ), #215, .T. ) ;
#72 = ORIENTED_EDGE ( 'NONE', *, *, #140, .T. ) ;
#73 = APPROVAL ( #113, 'NEURÈENÝ' ) ;
#74 = CIRCLE ( 'NONE', #91, 2.500000000000000000 ) ;
#75 = ORIENTED_EDGE ( 'NONE', *, *, #69, .T. ) ;
#76 = EDGE_LOOP ( 'NONE', ( #203, #200, #157, #108 ) ) ;
#77 = DIRECTION ( 'NONE',  ( 0.000000000000000000, 0.000000000000000000, 1.000000000000000000 ) ) ;
#78 = AXIS2_PLACEMENT_3D ( 'NONE', #206, #222, #59 ) ;
#79 = ADVANCED_FACE ( 'NONE', ( #120 ), #35, .T. ) ;
#80 = DIRECTION ( 'NONE',  ( 0.000000000000000000, 0.000000000000000000, 1.000000000000000000 ) ) ;
#81 = DIRECTION ( 'NONE',  ( 1.000000000000000000, 0.000000000000000000, 0.000000000000000000 ) ) ;
#82 = DATE_AND_TIME ( #86, #83 ) ;
#83 = LOCAL_TIME ( 13, 14, 28.00000000000000000, #8 ) ;
#84 = SHAPE_DEFINITION_REPRESENTATION ( #28, #149 ) ;
#85 = PRODUCT_DEFINITION ( 'NEZNÁMÝ', '', #2, #88 ) ;
#86 = CALENDAR_DATE ( 2023, 12, 2 ) ;
#87 = PERSON_AND_ORGANIZATION ( #92, #181 ) ;
#88 = DESIGN_CONTEXT ( 'detailed design', #158, 'design' ) ;
#89 = CC_DESIGN_DATE_AND_TIME_ASSIGNMENT ( #55, #218, ( #85 ) ) ;
#90 = PERSON_AND_ORGANIZATION ( #92, #181 ) ;
#91 = AXIS2_PLACEMENT_3D ( 'NONE', #143, #43, #224 ) ;
#92 = PERSON ( 'NEURÈENÝ', 'NEURÈENÝ', 'NEURÈENÝ', ('NEURÈENÝ'), ('NEURÈENÝ'), ('NEURÈENÝ') ) ;
#93 = CC_DESIGN_PERSON_AND_ORGANIZATION_ASSIGNMENT ( #23, #209, ( #144 ) ) ;
#94 = EDGE_CURVE ( 'NONE', #175, #31, #74, .T. ) ;
#95 = CARTESIAN_POINT ( 'NONE',  ( 2.500000000000000000, 3.061616997868383141E-16, 2.000000000000000000 ) ) ;
#96 = VERTEX_POINT ( 'NONE', #127 ) ;
#97 = LOCAL_TIME ( 13, 14, 28.00000000000000000, #162 ) ;
#98 = DIRECTION ( 'NONE',  ( 1.000000000000000000, 0.000000000000000000, -0.000000000000000000 ) ) ;
#99 = ADVANCED_FACE ( 'NONE', ( #54 ), #48, .F. ) ;
#100 = ORIENTED_EDGE ( 'NONE', *, *, #46, .F. ) ;
#101 = VECTOR ( 'NONE', #253, 1000.000000000000000 ) ;
#102 = APPROVAL_PERSON_ORGANIZATION ( #62, #1, #185 ) ;
#103 = CARTESIAN_POINT ( 'NONE',  ( 0.000000000000000000, 0.000000000000000000, 2.000000000000000000 ) ) ;
#104 = CYLINDRICAL_SURFACE ( 'NONE', #115, 2.500000000000000000 ) ;
#105 = EDGE_LOOP ( 'NONE', ( #219, #254 ) ) ;
#106 = CARTESIAN_POINT ( 'NONE',  ( 0.000000000000000000, 0.000000000000000000, 0.000000000000000000 ) ) ;
#107 = PERSON_AND_ORGANIZATION ( #92, #181 ) ;
#108 = ORIENTED_EDGE ( 'NONE', *, *, #229, .T. ) ;
#109 = PERSON_AND_ORGANIZATION ( #92, #181 ) ;
#110 = SECURITY_CLASSIFICATION_LEVEL ( 'unclassified' ) ;
#111 = CALENDAR_DATE ( 2023, 12, 2 ) ;
#112 = DIRECTION ( 'NONE',  ( 0.000000000000000000, 0.000000000000000000, 1.000000000000000000 ) ) ;
#113 = APPROVAL_STATUS ( 'not_yet_approved' ) ;
#114 = DIRECTION ( 'NONE',  ( -0.000000000000000000, -0.000000000000000000, -1.000000000000000000 ) ) ;
#115 = AXIS2_PLACEMENT_3D ( 'NONE', #19, #202, #239 ) ;
#116 = APPROVAL_ROLE ( '' ) ;
#117 = CC_DESIGN_APPROVAL ( #1, ( #144 ) ) ;
#118 = ORIENTED_EDGE ( 'NONE', *, *, #66, .T. ) ;
#119 = CARTESIAN_POINT ( 'NONE',  ( 0.000000000000000000, 0.000000000000000000, 2.000000000000000000 ) ) ;
#120 = FACE_OUTER_BOUND ( 'NONE', #76, .T. ) ;
#121 = ORIENTED_EDGE ( 'NONE', *, *, #140, .F. ) ;
#122 = CARTESIAN_POINT ( 'NONE',  ( 2.500000000000000000, 3.061616997868383141E-16, 0.000000000000000000 ) ) ;
#123 = CYLINDRICAL_SURFACE ( 'NONE', #128, 2.500000000000000000 ) ;
#124 = APPROVAL_STATUS ( 'not_yet_approved' ) ;
#125 = PRODUCT_RELATED_PRODUCT_CATEGORY ( 'detail', '', ( #169 ) ) ;
#126 = AXIS2_PLACEMENT_3D ( 'NONE', #129, #156, #29 ) ;
#127 = CARTESIAN_POINT ( 'NONE',  ( -1.250000000000000000, 0.000000000000000000, 315.0000000000000000 ) ) ;
#128 = AXIS2_PLACEMENT_3D ( 'NONE', #103, #63, #226 ) ;
#129 = CARTESIAN_POINT ( 'NONE',  ( 0.000000000000000000, 0.000000000000000000, 2.000000000000000000 ) ) ;
#130 = AXIS2_PLACEMENT_3D ( 'NONE', #7, #80, #81 ) ;
#131 = DIRECTION ( 'NONE',  ( 0.000000000000000000, 0.000000000000000000, 1.000000000000000000 ) ) ;
#132 = ORIENTED_EDGE ( 'NONE', *, *, #69, .F. ) ;
#133 = LINE ( 'NONE', #30, #101 ) ;
#134 = DIRECTION ( 'NONE',  ( 1.000000000000000000, 0.000000000000000000, 0.000000000000000000 ) ) ;
#135 = DIRECTION ( 'NONE',  ( -0.000000000000000000, -0.000000000000000000, -1.000000000000000000 ) ) ;
#136 = ORIENTED_EDGE ( 'NONE', *, *, #66, .F. ) ;
#137 = LOCAL_TIME ( 13, 14, 28.00000000000000000, #3 ) ;
#138 = DIRECTION ( 'NONE',  ( 0.000000000000000000, 0.000000000000000000, 1.000000000000000000 ) ) ;
#139 = CC_DESIGN_PERSON_AND_ORGANIZATION_ASSIGNMENT ( #107, #208, ( #2 ) ) ;
#140 = EDGE_CURVE ( 'NONE', #24, #163, #196, .T. ) ;
#141 = DIRECTION ( 'NONE',  ( 0.000000000000000000, 0.000000000000000000, 1.000000000000000000 ) ) ;
#142 = CARTESIAN_POINT ( 'NONE',  ( -1.250000000000000000, 0.000000000000000000, 2.000000000000000000 ) ) ;
#143 = CARTESIAN_POINT ( 'NONE',  ( 0.000000000000000000, 0.000000000000000000, 0.000000000000000000 ) ) ;
#144 = SECURITY_CLASSIFICATION ( '', '', #110 ) ;
#145 = VERTEX_POINT ( 'NONE', #164 ) ;
#146 = CARTESIAN_POINT ( 'NONE',  ( -1.250000000000000000, 0.000000000000000000, 315.0000000000000000 ) ) ;
#147 = APPROVAL_ROLE ( '' ) ;
#148 = DATE_AND_TIME ( #111, #34 ) ;
#149 = ADVANCED_BREP_SHAPE_REPRESENTATION ( '82f4', ( #153, #67 ), #232 ) ;
#150 = ORIENTED_EDGE ( 'NONE', *, *, #94, .T. ) ;
#151 = CLOSED_SHELL ( 'NONE', ( #71, #227, #217, #250, #99, #79, #13 ) ) ;
#152 = PERSON_AND_ORGANIZATION_ROLE ( 'creator' ) ;
#153 = MANIFOLD_SOLID_BREP ( 'Pøidat vysunutím3', #151 ) ;
#154 = AXIS2_PLACEMENT_3D ( 'NONE', #119, #141, #243 ) ;
#155 = CARTESIAN_POINT ( 'NONE',  ( 0.000000000000000000, 0.000000000000000000, 315.0000000000000000 ) ) ;
#156 = DIRECTION ( 'NONE',  ( 0.000000000000000000, 0.000000000000000000, 1.000000000000000000 ) ) ;
#157 = ORIENTED_EDGE ( 'NONE', *, *, #195, .T. ) ;
#158 = APPLICATION_CONTEXT ( 'configuration controlled 3d designs of mechanical parts and assemblies' ) ;
#159 = FACE_BOUND ( 'NONE', #174, .T. ) ;
#160 = VERTEX_POINT ( 'NONE', #221 ) ;
#161 = FACE_OUTER_BOUND ( 'NONE', #225, .T. ) ;
#162 = COORDINATED_UNIVERSAL_TIME_OFFSET ( 1, 0, .AHEAD. ) ;
#163 = VERTEX_POINT ( 'NONE', #142 ) ;
#164 = CARTESIAN_POINT ( 'NONE',  ( 1.250000000000000000, 1.530808498934191571E-16, 315.0000000000000000 ) ) ;
#165 = APPROVAL_PERSON_ORGANIZATION ( #109, #73, #147 ) ;
#166 = APPLICATION_PROTOCOL_DEFINITION ( 'international standard', 'config_control_design', 1994, #53 ) ;
#167 = EDGE_CURVE ( 'NONE', #145, #96, #44, .T. ) ;
#168 = UNCERTAINTY_MEASURE_WITH_UNIT (LENGTH_MEASURE( 1.000000000000000082E-05 ), #182, 'distance_accuracy_value', 'NONE');
#169 = PRODUCT ( '82f4', '82f4', '', ( #247 ) ) ;
#170 = CALENDAR_DATE ( 2023, 12, 2 ) ;
#171 = CARTESIAN_POINT ( 'NONE',  ( 1.250000000000000000, 1.530808498934191571E-16, 2.000000000000000000 ) ) ;
#172 = AXIS2_PLACEMENT_3D ( 'NONE', #155, #112, #230 ) ;
#173 = COORDINATED_UNIVERSAL_TIME_OFFSET ( 1, 0, .AHEAD. ) ;
#174 = EDGE_LOOP ( 'NONE', ( #4, #121 ) ) ;
#175 = VERTEX_POINT ( 'NONE', #122 ) ;
#176 = CALENDAR_DATE ( 2023, 12, 2 ) ;
#177 = ORIENTED_EDGE ( 'NONE', *, *, #167, .F. ) ;
#178 = EDGE_CURVE ( 'NONE', #160, #50, #193, .T. ) ;
#179 = EDGE_LOOP ( 'NONE', ( #75, #220 ) ) ;
#180 = VECTOR ( 'NONE', #114, 1000.000000000000000 ) ;
#181 = ORGANIZATION ( 'NEURÈENÝ', 'NEURÈENÝ', '' ) ;
#182 =( LENGTH_UNIT ( ) NAMED_UNIT ( * ) SI_UNIT ( .MILLI., .METRE. ) );
#183 = DIRECTION ( 'NONE',  ( -1.000000000000000000, 0.000000000000000000, 0.000000000000000000 ) ) ;
#184 = ORIENTED_EDGE ( 'NONE', *, *, #94, .F. ) ;
#185 = APPROVAL_ROLE ( '' ) ;
#186 = DIRECTION ( 'NONE',  ( 1.000000000000000000, 0.000000000000000000, 0.000000000000000000 ) ) ;
#187 = CC_DESIGN_APPROVAL ( #73, ( #85 ) ) ;
#188 = APPROVAL_DATE_TIME ( #82, #1 ) ;
#189 = EDGE_CURVE ( 'NONE', #145, #24, #36, .T. ) ;
#190 = ORIENTED_EDGE ( 'NONE', *, *, #189, .T. ) ;
#191 = COORDINATED_UNIVERSAL_TIME_OFFSET ( 1, 0, .AHEAD. ) ;
#192 = CARTESIAN_POINT ( 'NONE',  ( 0.000000000000000000, 0.000000000000000000, 0.000000000000000000 ) ) ;
#193 = CIRCLE ( 'NONE', #154, 2.500000000000000000 ) ;
#194 = CIRCLE ( 'NONE', #49, 1.250000000000000000 ) ;
#195 = EDGE_CURVE ( 'NONE', #96, #163, #20, .T. ) ;
#196 = CIRCLE ( 'NONE', #126, 1.250000000000000000 ) ;
#197 = CARTESIAN_POINT ( 'NONE',  ( 0.000000000000000000, 0.000000000000000000, 0.000000000000000000 ) ) ;
#198 = APPROVAL_PERSON_ORGANIZATION ( #33, #214, #116 ) ;
#199 = APPROVAL_DATE_TIME ( #201, #214 ) ;
#200 = ORIENTED_EDGE ( 'NONE', *, *, #246, .F. ) ;
#201 = DATE_AND_TIME ( #176, #137 ) ;
#202 = DIRECTION ( 'NONE',  ( -0.000000000000000000, -0.000000000000000000, -1.000000000000000000 ) ) ;
#203 = ORIENTED_EDGE ( 'NONE', *, *, #189, .F. ) ;
#204 = CARTESIAN_POINT ( 'NONE',  ( 1.250000000000000000, 1.530808498934191571E-16, 315.0000000000000000 ) ) ;
#205 = EDGE_LOOP ( 'NONE', ( #236, #184 ) ) ;
#206 = CARTESIAN_POINT ( 'NONE',  ( 0.000000000000000000, 0.000000000000000000, 2.000000000000000000 ) ) ;
#207 = CIRCLE ( 'NONE', #11, 2.500000000000000000 ) ;
#208 = PERSON_AND_ORGANIZATION_ROLE ( 'design_supplier' ) ;
#209 = PERSON_AND_ORGANIZATION_ROLE ( 'classification_officer' ) ;
#210 = AXIS2_PLACEMENT_3D ( 'NONE', #248, #61, #183 ) ;
#211 = CC_DESIGN_SECURITY_CLASSIFICATION ( #144, ( #2 ) ) ;
#212 = CARTESIAN_POINT ( 'NONE',  ( 0.000000000000000000, 0.000000000000000000, 2.000000000000000000 ) ) ;
#213 = AXIS2_PLACEMENT_3D ( 'NONE', #192, #131, #51 ) ;
#214 = APPROVAL ( #240, 'NEURÈENÝ' ) ;
#215 = CYLINDRICAL_SURFACE ( 'NONE', #251, 1.250000000000000000 ) ;
#216 = CC_DESIGN_APPROVAL ( #214, ( #2 ) ) ;
#217 = ADVANCED_FACE ( 'NONE', ( #161 ), #104, .T. ) ;
#218 = DATE_TIME_ROLE ( 'creation_date' ) ;
#219 = ORIENTED_EDGE ( 'NONE', *, *, #246, .T. ) ;
#220 = ORIENTED_EDGE ( 'NONE', *, *, #178, .T. ) ;
#221 = CARTESIAN_POINT ( 'NONE',  ( 2.500000000000000000, 3.061616997868383141E-16, 2.000000000000000000 ) ) ;
#222 = DIRECTION ( 'NONE',  ( 0.000000000000000000, 0.000000000000000000, 1.000000000000000000 ) ) ;
#223 = DIRECTION ( 'NONE',  ( 1.000000000000000000, 0.000000000000000000, 0.000000000000000000 ) ) ;
#224 = DIRECTION ( 'NONE',  ( 1.000000000000000000, 0.000000000000000000, 0.000000000000000000 ) ) ;
#225 = EDGE_LOOP ( 'NONE', ( #100, #132, #118, #70 ) ) ;
#226 = DIRECTION ( 'NONE',  ( -1.000000000000000000, 0.000000000000000000, 0.000000000000000000 ) ) ;
#227 = ADVANCED_FACE ( 'NONE', ( #17 ), #123, .T. ) ;
#228 = FACE_OUTER_BOUND ( 'NONE', #179, .T. ) ;
#229 = EDGE_CURVE ( 'NONE', #163, #24, #194, .T. ) ;
#230 = DIRECTION ( 'NONE',  ( 1.000000000000000000, 0.000000000000000000, -0.000000000000000000 ) ) ;
#231 = PERSON_AND_ORGANIZATION ( #92, #181 ) ;
#232 =( GEOMETRIC_REPRESENTATION_CONTEXT ( 3 ) GLOBAL_UNCERTAINTY_ASSIGNED_CONTEXT ( ( #168 ) ) GLOBAL_UNIT_ASSIGNED_CONTEXT ( ( #182, #38, #22 ) ) REPRESENTATION_CONTEXT ( 'NONE', 'WORKASPACE' ) );
#233 = APPLICATION_PROTOCOL_DEFINITION ( 'international standard', 'config_control_design', 1994, #158 ) ;
#234 = PLANE ( 'NONE',  #172 ) ;
#235 = CARTESIAN_POINT ( 'NONE',  ( -2.500000000000000000, 0.000000000000000000, 2.000000000000000000 ) ) ;
#236 = ORIENTED_EDGE ( 'NONE', *, *, #56, .F. ) ;
#237 = DIRECTION ( 'NONE',  ( 0.000000000000000000, 0.000000000000000000, 1.000000000000000000 ) ) ;
#238 = VECTOR ( 'NONE', #25, 1000.000000000000000 ) ;
#239 = DIRECTION ( 'NONE',  ( -1.000000000000000000, 0.000000000000000000, 0.000000000000000000 ) ) ;
#240 = APPROVAL_STATUS ( 'not_yet_approved' ) ;
#241 = PLANE ( 'NONE',  #78 ) ;
#242 = ORIENTED_EDGE ( 'NONE', *, *, #195, .F. ) ;
#243 = DIRECTION ( 'NONE',  ( 1.000000000000000000, 0.000000000000000000, 0.000000000000000000 ) ) ;
#244 = ORIENTED_EDGE ( 'NONE', *, *, #46, .T. ) ;
#245 = CIRCLE ( 'NONE', #130, 1.250000000000000000 ) ;
#246 = EDGE_CURVE ( 'NONE', #96, #145, #245, .T. ) ;
#247 = MECHANICAL_CONTEXT ( 'NONE', #53, 'mechanical' ) ;
#248 = CARTESIAN_POINT ( 'NONE',  ( 0.000000000000000000, 0.000000000000000000, 315.0000000000000000 ) ) ;
#249 = DATE_TIME_ROLE ( 'classification_date' ) ;
#250 = ADVANCED_FACE ( 'NONE', ( #159, #228 ), #241, .T. ) ;
#251 = AXIS2_PLACEMENT_3D ( 'NONE', #47, #135, #57 ) ;
#252 = DATE_AND_TIME ( #9, #97 ) ;
#253 = DIRECTION ( 'NONE',  ( -0.000000000000000000, -0.000000000000000000, -1.000000000000000000 ) ) ;
#254 = ORIENTED_EDGE ( 'NONE', *, *, #167, .T. ) ;
#255 = CARTESIAN_POINT ( 'NONE',  ( -2.500000000000000000, 0.000000000000000000, 0.000000000000000000 ) ) ;
ENDSEC;
END-ISO-10303-21;
