ISO-10303-21;
HEADER;
FILE_DESCRIPTION (( 'STEP AP203' ),
    '1' );
FILE_NAME ('f361.STEP',
    '2022-07-07T12:44:21',
    ( '' ),
    ( '' ),
    'SwSTEP 2.0',
    'SolidWorks 2019',
    '' );
FILE_SCHEMA (( 'CONFIG_CONTROL_DESIGN' ));
ENDSEC;

DATA;
#1 = ORIENTED_EDGE ( 'NONE', *, *, #138, .F. ) ;
#2 = ORIENTED_EDGE ( 'NONE', *, *, #119, .F. ) ;
#3 = CARTESIAN_POINT ( 'NONE',  ( 0.000000000000000000, 0.000000000000000000, 3.000000000000000000 ) ) ;
#4 = DIRECTION ( 'NONE',  ( 1.000000000000000000, 0.000000000000000000, -0.000000000000000000 ) ) ;
#5 = CARTESIAN_POINT ( 'NONE',  ( 0.000000000000000000, 0.000000000000000000, 3.000000000000000000 ) ) ;
#6 = APPROVAL_STATUS ( 'not_yet_approved' ) ;
#7 = DIRECTION ( 'NONE',  ( 1.000000000000000000, 0.000000000000000000, 0.000000000000000000 ) ) ;
#8 = APPROVAL_ROLE ( '' ) ;
#9 = CARTESIAN_POINT ( 'NONE',  ( 0.000000000000000000, 0.000000000000000000, 3.000000000000000000 ) ) ;
#10 = PERSON_AND_ORGANIZATION ( #36, #69 ) ;
#11 = APPROVAL_PERSON_ORGANIZATION ( #28, #86, #294 ) ;
#12 = CARTESIAN_POINT ( 'NONE',  ( 0.000000000000000000, 0.000000000000000000, 503.0000000000000000 ) ) ;
#13 = PERSON_AND_ORGANIZATION ( #36, #69 ) ;
#14 = AXIS2_PLACEMENT_3D ( 'NONE', #265, #196, #154 ) ;
#15 = VERTEX_POINT ( 'NONE', #191 ) ;
#16 = AXIS2_PLACEMENT_3D ( 'NONE', #3, #195, #290 ) ;
#17 = ORIENTED_EDGE ( 'NONE', *, *, #165, .T. ) ;
#18 = CARTESIAN_POINT ( 'NONE',  ( 5.000000000000000000, 6.123233995736766282E-16, 0.000000000000000000 ) ) ;
#19 = EDGE_LOOP ( 'NONE', ( #255, #98 ) ) ;
#20 = DIRECTION ( 'NONE',  ( 1.000000000000000000, 0.000000000000000000, 0.000000000000000000 ) ) ;
#21 = ORIENTED_EDGE ( 'NONE', *, *, #299, .F. ) ;
#22 = EDGE_CURVE ( 'NONE', #15, #95, #135, .T. ) ;
#23 = FACE_OUTER_BOUND ( 'NONE', #65, .T. ) ;
#24 = DIRECTION ( 'NONE',  ( 0.000000000000000000, 0.000000000000000000, 1.000000000000000000 ) ) ;
#25 = AXIS2_PLACEMENT_3D ( 'NONE', #235, #257, #150 ) ;
#26 = AXIS2_PLACEMENT_3D ( 'NONE', #84, #81, #268 ) ;
#27 = DIRECTION ( 'NONE',  ( -0.000000000000000000, -0.000000000000000000, -1.000000000000000000 ) ) ;
#28 = PERSON_AND_ORGANIZATION ( #36, #69 ) ;
#29 = DIRECTION ( 'NONE',  ( 0.000000000000000000, 0.000000000000000000, 1.000000000000000000 ) ) ;
#30 = MANIFOLD_SOLID_BREP ( 'Zaoblit1', #295 ) ;
#31 = SHAPE_DEFINITION_REPRESENTATION ( #292, #79 ) ;
#32 = DIRECTION ( 'NONE',  ( -0.000000000000000000, -0.000000000000000000, -1.000000000000000000 ) ) ;
#33 = DIRECTION ( 'NONE',  ( 0.000000000000000000, 0.000000000000000000, -1.000000000000000000 ) ) ;
#34 = EDGE_CURVE ( 'NONE', #78, #238, #189, .T. ) ;
#35 = PERSON_AND_ORGANIZATION_ROLE ( 'creator' ) ;
#36 = PERSON ( 'NEURÈENÝ', 'NEURÈENÝ', 'NEURÈENÝ', ('NEURÈENÝ'), ('NEURÈENÝ'), ('NEURÈENÝ') ) ;
#37 =( NAMED_UNIT ( * ) SI_UNIT ( $, .STERADIAN. ) SOLID_ANGLE_UNIT ( ) );
#38 = VERTEX_POINT ( 'NONE', #122 ) ;
#39 = CIRCLE ( 'NONE', #284, 5.000000000000000000 ) ;
#40 = ORIENTED_EDGE ( 'NONE', *, *, #34, .F. ) ;
#41 = ORIENTED_EDGE ( 'NONE', *, *, #34, .T. ) ;
#43 = ORIENTED_EDGE ( 'NONE', *, *, #227, .F. ) ;
#42 =( GEOMETRIC_REPRESENTATION_CONTEXT ( 3 ) GLOBAL_UNCERTAINTY_ASSIGNED_CONTEXT ( ( #234 ) ) GLOBAL_UNIT_ASSIGNED_CONTEXT ( ( #159, #160, #37 ) ) REPRESENTATION_CONTEXT ( 'NONE', 'WORKASPACE' ) );
#44 = ADVANCED_FACE ( 'NONE', ( #75 ), #53, .F. ) ;
#45 = DESIGN_CONTEXT ( 'detailed design', #251, 'design' ) ;
#46 = VERTEX_POINT ( 'NONE', #50 ) ;
#47 = EDGE_LOOP ( 'NONE', ( #184, #120, #111, #1 ) ) ;
#48 = EDGE_CURVE ( 'NONE', #282, #46, #67, .T. ) ;
#49 = ORIENTED_EDGE ( 'NONE', *, *, #138, .T. ) ;
#50 = CARTESIAN_POINT ( 'NONE',  ( -2.600000000000000089, 0.000000000000000000, 503.0000000000000000 ) ) ;
#51 = ORIENTED_EDGE ( 'NONE', *, *, #209, .F. ) ;
#52 = DIRECTION ( 'NONE',  ( -0.000000000000000000, -0.000000000000000000, -1.000000000000000000 ) ) ;
#53 = TOROIDAL_SURFACE ( 'NONE', #171, 2.799999999999999822, 0.2000000000000000111 ) ;
#54 = AXIS2_PLACEMENT_3D ( 'NONE', #103, #222, #220 ) ;
#55 = CARTESIAN_POINT ( 'NONE',  ( 0.000000000000000000, 0.000000000000000000, 3.199999999999980638 ) ) ;
#56 = CARTESIAN_POINT ( 'NONE',  ( 0.000000000000000000, 0.000000000000000000, 503.0000000000000000 ) ) ;
#57 = DIRECTION ( 'NONE',  ( 1.000000000000000000, 0.000000000000000000, 0.000000000000000000 ) ) ;
#58 = AXIS2_PLACEMENT_3D ( 'NONE', #9, #157, #156 ) ;
#59 = AXIS2_PLACEMENT_3D ( 'NONE', #197, #137, #226 ) ;
#60 = LINE ( 'NONE', #264, #261 ) ;
#61 = DATE_TIME_ROLE ( 'creation_date' ) ;
#62 = LOCAL_TIME ( 14, 44, 21.00000000000000000, #105 ) ;
#63 = ORIENTED_EDGE ( 'NONE', *, *, #153, .F. ) ;
#64 = ADVANCED_FACE ( 'NONE', ( #285 ), #74, .T. ) ;
#65 = EDGE_LOOP ( 'NONE', ( #43, #73, #162, #275 ) ) ;
#66 = CIRCLE ( 'NONE', #26, 2.600000000000000089 ) ;
#67 = CIRCLE ( 'NONE', #219, 2.600000000000000089 ) ;
#68 = CIRCLE ( 'NONE', #121, 2.600000000000000089 ) ;
#69 = ORGANIZATION ( 'NEURÈENÝ', 'NEURÈENÝ', '' ) ;
#70 = PRODUCT_DEFINITION ( 'NEZNÁMÝ', '', #96, #45 ) ;
#71 = EDGE_LOOP ( 'NONE', ( #147, #148 ) ) ;
#72 = AXIS2_PLACEMENT_3D ( 'NONE', #174, #201, #272 ) ;
#73 = ORIENTED_EDGE ( 'NONE', *, *, #187, .F. ) ;
#74 = CYLINDRICAL_SURFACE ( 'NONE', #200, 5.000000000000000000 ) ;
#75 = FACE_OUTER_BOUND ( 'NONE', #141, .T. ) ;
#76 = DIRECTION ( 'NONE',  ( 1.000000000000000000, 0.000000000000000000, -0.000000000000000000 ) ) ;
#77 = ADVANCED_FACE ( 'NONE', ( #263 ), #215, .F. ) ;
#78 = VERTEX_POINT ( 'NONE', #172 ) ;
#79 = ADVANCED_BREP_SHAPE_REPRESENTATION ( 'f361', ( #30, #136 ), #42 ) ;
#80 = DIRECTION ( 'NONE',  ( 0.000000000000000000, 0.000000000000000000, 1.000000000000000000 ) ) ;
#81 = DIRECTION ( 'NONE',  ( 0.000000000000000000, 0.000000000000000000, 1.000000000000000000 ) ) ;
#82 = COORDINATED_UNIVERSAL_TIME_OFFSET ( 1, 0, .AHEAD. ) ;
#83 = FACE_OUTER_BOUND ( 'NONE', #253, .T. ) ;
#84 = CARTESIAN_POINT ( 'NONE',  ( 0.000000000000000000, 0.000000000000000000, 503.0000000000000000 ) ) ;
#85 = APPROVAL_DATE_TIME ( #90, #242 ) ;
#86 = APPROVAL ( #6, 'NEURÈENÝ' ) ;
#87 = DIRECTION ( 'NONE',  ( -0.000000000000000000, -0.000000000000000000, -1.000000000000000000 ) ) ;
#88 = PERSON_AND_ORGANIZATION ( #36, #69 ) ;
#89 = VECTOR ( 'NONE', #52, 1000.000000000000000 ) ;
#90 = DATE_AND_TIME ( #301, #239 ) ;
#91 = VERTEX_POINT ( 'NONE', #262 ) ;
#92 = AXIS2_PLACEMENT_3D ( 'NONE', #192, #287, #76 ) ;
#94 = DIRECTION ( 'NONE',  ( 1.000000000000000000, 0.000000000000000000, 0.000000000000000000 ) ) ;
#93 = CIRCLE ( 'NONE', #243, 0.2000000000000000944 ) ;
#95 = VERTEX_POINT ( 'NONE', #18 ) ;
#96 = PRODUCT_DEFINITION_FORMATION_WITH_SPECIFIED_SOURCE ( 'LIBOVOLNÝ', '', #288, .NOT_KNOWN. ) ;
#97 = DIRECTION ( 'NONE',  ( 0.000000000000000000, 0.000000000000000000, 1.000000000000000000 ) ) ;
#98 = ORIENTED_EDGE ( 'NONE', *, *, #209, .T. ) ;
#99 = ADVANCED_FACE ( 'NONE', ( #23 ), #124, .T. ) ;
#100 = CARTESIAN_POINT ( 'NONE',  ( 2.600000000000000089, 3.184081677783118191E-16, 503.0000000000000000 ) ) ;
#101 = DIRECTION ( 'NONE',  ( 0.000000000000000000, 0.000000000000000000, 1.000000000000000000 ) ) ;
#102 = CALENDAR_DATE ( 2022, 7, 7 ) ;
#103 = CARTESIAN_POINT ( 'NONE',  ( 0.000000000000000000, 0.000000000000000000, 3.000000000000000000 ) ) ;
#104 = ADVANCED_FACE ( 'NONE', ( #173, #117 ), #212, .T. ) ;
#105 = COORDINATED_UNIVERSAL_TIME_OFFSET ( 1, 0, .AHEAD. ) ;
#106 = LINE ( 'NONE', #100, #273 ) ;
#107 = CC_DESIGN_PERSON_AND_ORGANIZATION_ASSIGNMENT ( #140, #35, ( #70 ) ) ;
#108 = APPLICATION_PROTOCOL_DEFINITION ( 'international standard', 'config_control_design', 1994, #118 ) ;
#109 = CARTESIAN_POINT ( 'NONE',  ( 5.000000000000000000, 6.123233995736766282E-16, 3.000000000000000000 ) ) ;
#110 = APPROVAL_DATE_TIME ( #139, #188 ) ;
#111 = ORIENTED_EDGE ( 'NONE', *, *, #299, .T. ) ;
#112 = COORDINATED_UNIVERSAL_TIME_OFFSET ( 1, 0, .AHEAD. ) ;
#113 = ORIENTED_EDGE ( 'NONE', *, *, #134, .F. ) ;
#114 = APPROVAL_PERSON_ORGANIZATION ( #298, #242, #8 ) ;
#115 = AXIS2_PLACEMENT_3D ( 'NONE', #5, #29, #128 ) ;
#116 = EDGE_LOOP ( 'NONE', ( #63, #113, #49, #183 ) ) ;
#117 = FACE_OUTER_BOUND ( 'NONE', #279, .T. ) ;
#118 = APPLICATION_CONTEXT ( 'configuration controlled 3d designs of mechanical parts and assemblies' ) ;
#119 = EDGE_CURVE ( 'NONE', #207, #238, #127, .T. ) ;
#120 = ORIENTED_EDGE ( 'NONE', *, *, #153, .T. ) ;
#122 = CARTESIAN_POINT ( 'NONE',  ( -5.000000000000000000, 0.000000000000000000, 3.000000000000000000 ) ) ;
#121 = AXIS2_PLACEMENT_3D ( 'NONE', #55, #80, #249 ) ;
#123 = EDGE_LOOP ( 'NONE', ( #304, #185, #305, #168 ) ) ;
#124 = CYLINDRICAL_SURFACE ( 'NONE', #16, 5.000000000000000000 ) ;
#125 = EDGE_CURVE ( 'NONE', #95, #15, #167, .T. ) ;
#126 = CARTESIAN_POINT ( 'NONE',  ( 2.799999999999999822, 0.000000000000000000, 3.199999999999980638 ) ) ;
#127 = CIRCLE ( 'NONE', #58, 2.799999999999999822 ) ;
#128 = DIRECTION ( 'NONE',  ( 1.000000000000000000, 0.000000000000000000, 0.000000000000000000 ) ) ;
#129 = APPROVAL_PERSON_ORGANIZATION ( #155, #188, #199 ) ;
#130 = APPROVAL_STATUS ( 'not_yet_approved' ) ;
#131 = FACE_OUTER_BOUND ( 'NONE', #116, .T. ) ;
#132 = PERSON_AND_ORGANIZATION ( #36, #69 ) ;
#133 = FACE_OUTER_BOUND ( 'NONE', #47, .T. ) ;
#134 = EDGE_CURVE ( 'NONE', #46, #282, #66, .T. ) ;
#135 = CIRCLE ( 'NONE', #181, 5.000000000000000000 ) ;
#136 = AXIS2_PLACEMENT_3D ( 'NONE', #178, #271, #57 ) ;
#137 = DIRECTION ( 'NONE',  ( 0.000000000000000000, 0.000000000000000000, 1.000000000000000000 ) ) ;
#138 = EDGE_CURVE ( 'NONE', #46, #78, #228, .T. ) ;
#139 = DATE_AND_TIME ( #102, #280 ) ;
#140 = PERSON_AND_ORGANIZATION ( #36, #69 ) ;
#141 = EDGE_LOOP ( 'NONE', ( #164, #41, #2, #216 ) ) ;
#142 = CIRCLE ( 'NONE', #54, 2.799999999999999822 ) ;
#143 = CARTESIAN_POINT ( 'NONE',  ( 0.000000000000000000, 0.000000000000000000, 3.000000000000000000 ) ) ;
#144 = PRODUCT_RELATED_PRODUCT_CATEGORY ( 'detail', '', ( #288 ) ) ;
#145 = ORIENTED_EDGE ( 'NONE', *, *, #187, .T. ) ;
#146 = AXIS2_PLACEMENT_3D ( 'NONE', #241, #24, #229 ) ;
#147 = ORIENTED_EDGE ( 'NONE', *, *, #22, .F. ) ;
#148 = ORIENTED_EDGE ( 'NONE', *, *, #125, .F. ) ;
#149 = CC_DESIGN_APPROVAL ( #188, ( #96 ) ) ;
#150 = DIRECTION ( 'NONE',  ( -1.000000000000000000, 1.224646799147353207E-16, 0.000000000000000000 ) ) ;
#151 = CARTESIAN_POINT ( 'NONE',  ( -2.799999999999999822, 3.429011037612589276E-16, 2.999999999999990674 ) ) ;
#152 = CALENDAR_DATE ( 2022, 7, 7 ) ;
#153 = EDGE_CURVE ( 'NONE', #282, #91, #106, .T. ) ;
#154 = DIRECTION ( 'NONE',  ( 1.000000000000000000, 0.000000000000000000, 0.000000000000000000 ) ) ;
#155 = PERSON_AND_ORGANIZATION ( #36, #69 ) ;
#156 = DIRECTION ( 'NONE',  ( 1.000000000000000000, 0.000000000000000000, 0.000000000000000000 ) ) ;
#157 = DIRECTION ( 'NONE',  ( -0.000000000000000000, -0.000000000000000000, -1.000000000000000000 ) ) ;
#158 = APPLICATION_PROTOCOL_DEFINITION ( 'international standard', 'config_control_design', 1994, #251 ) ;
#159 =( LENGTH_UNIT ( ) NAMED_UNIT ( * ) SI_UNIT ( .MILLI., .METRE. ) );
#160 =( NAMED_UNIT ( * ) PLANE_ANGLE_UNIT ( ) SI_UNIT ( $, .RADIAN. ) );
#161 = LOCAL_TIME ( 14, 44, 21.00000000000000000, #112 ) ;
#162 = ORIENTED_EDGE ( 'NONE', *, *, #274, .T. ) ;
#163 = VECTOR ( 'NONE', #27, 1000.000000000000000 ) ;
#164 = ORIENTED_EDGE ( 'NONE', *, *, #232, .F. ) ;
#165 = EDGE_CURVE ( 'NONE', #91, #207, #93, .T. ) ;
#166 = EDGE_CURVE ( 'NONE', #190, #38, #194, .T. ) ;
#167 = CIRCLE ( 'NONE', #72, 5.000000000000000000 ) ;
#168 = ORIENTED_EDGE ( 'NONE', *, *, #274, .F. ) ;
#169 = CARTESIAN_POINT ( 'NONE',  ( 0.000000000000000000, 0.000000000000000000, 503.0000000000000000 ) ) ;
#170 = CARTESIAN_POINT ( 'NONE',  ( 0.000000000000000000, 0.000000000000000000, 0.000000000000000000 ) ) ;
#171 = AXIS2_PLACEMENT_3D ( 'NONE', #260, #307, #20 ) ;
#172 = CARTESIAN_POINT ( 'NONE',  ( -2.600000000000000089, 0.000000000000000000, 3.199999999999980638 ) ) ;
#173 = FACE_BOUND ( 'NONE', #19, .T. ) ;
#174 = CARTESIAN_POINT ( 'NONE',  ( 0.000000000000000000, 0.000000000000000000, 0.000000000000000000 ) ) ;
#175 = CYLINDRICAL_SURFACE ( 'NONE', #214, 2.600000000000000089 ) ;
#176 = CALENDAR_DATE ( 2022, 7, 7 ) ;
#177 = CARTESIAN_POINT ( 'NONE',  ( 2.600000000000000089, 3.184081677783118191E-16, 503.0000000000000000 ) ) ;
#178 = CARTESIAN_POINT ( 'NONE',  ( 0.000000000000000000, 0.000000000000000000, 0.000000000000000000 ) ) ;
#179 = DIRECTION ( 'NONE',  ( 0.000000000000000000, 0.000000000000000000, 1.000000000000000000 ) ) ;
#180 = DIRECTION ( 'NONE',  ( -1.000000000000000000, 0.000000000000000000, 0.000000000000000000 ) ) ;
#181 = AXIS2_PLACEMENT_3D ( 'NONE', #170, #286, #217 ) ;
#182 = PERSON_AND_ORGANIZATION_ROLE ( 'design_supplier' ) ;
#183 = ORIENTED_EDGE ( 'NONE', *, *, #232, .T. ) ;
#184 = ORIENTED_EDGE ( 'NONE', *, *, #48, .F. ) ;
#185 = ORIENTED_EDGE ( 'NONE', *, *, #227, .T. ) ;
#186 = CC_DESIGN_APPROVAL ( #86, ( #267 ) ) ;
#187 = EDGE_CURVE ( 'NONE', #38, #190, #39, .T. ) ;
#188 = APPROVAL ( #130, 'NEURÈENÝ' ) ;
#189 = CIRCLE ( 'NONE', #25, 0.2000000000000000944 ) ;
#190 = VERTEX_POINT ( 'NONE', #109 ) ;
#191 = CARTESIAN_POINT ( 'NONE',  ( -5.000000000000000000, 0.000000000000000000, 0.000000000000000000 ) ) ;
#192 = CARTESIAN_POINT ( 'NONE',  ( 0.000000000000000000, 0.000000000000000000, 0.000000000000000000 ) ) ;
#193 = CC_DESIGN_DATE_AND_TIME_ASSIGNMENT ( #245, #202, ( #267 ) ) ;
#194 = CIRCLE ( 'NONE', #115, 5.000000000000000000 ) ;
#195 = DIRECTION ( 'NONE',  ( -0.000000000000000000, -0.000000000000000000, -1.000000000000000000 ) ) ;
#196 = DIRECTION ( 'NONE',  ( 0.000000000000000000, 0.000000000000000000, 1.000000000000000000 ) ) ;
#197 = CARTESIAN_POINT ( 'NONE',  ( 0.000000000000000000, 0.000000000000000000, 503.0000000000000000 ) ) ;
#198 = CC_DESIGN_PERSON_AND_ORGANIZATION_ASSIGNMENT ( #10, #277, ( #288 ) ) ;
#199 = APPROVAL_ROLE ( '' ) ;
#200 = AXIS2_PLACEMENT_3D ( 'NONE', #143, #240, #259 ) ;
#201 = DIRECTION ( 'NONE',  ( 0.000000000000000000, 0.000000000000000000, 1.000000000000000000 ) ) ;
#202 = DATE_TIME_ROLE ( 'classification_date' ) ;
#203 = DIRECTION ( 'NONE',  ( -1.000000000000000000, 0.000000000000000000, 0.000000000000000000 ) ) ;
#204 = COORDINATED_UNIVERSAL_TIME_OFFSET ( 1, 0, .AHEAD. ) ;
#205 = PLANE ( 'NONE',  #59 ) ;
#206 = PERSON_AND_ORGANIZATION_ROLE ( 'creator' ) ;
#207 = VERTEX_POINT ( 'NONE', #270 ) ;
#208 = APPROVAL_STATUS ( 'not_yet_approved' ) ;
#209 = EDGE_CURVE ( 'NONE', #238, #207, #142, .T. ) ;
#210 = CC_DESIGN_PERSON_AND_ORGANIZATION_ASSIGNMENT ( #88, #182, ( #96 ) ) ;
#211 = EDGE_LOOP ( 'NONE', ( #236, #281 ) ) ;
#212 = PLANE ( 'NONE',  #302 ) ;
#213 = ORIENTED_EDGE ( 'NONE', *, *, #166, .T. ) ;
#214 = AXIS2_PLACEMENT_3D ( 'NONE', #56, #32, #203 ) ;
#215 = PLANE ( 'NONE',  #92 ) ;
#216 = ORIENTED_EDGE ( 'NONE', *, *, #165, .F. ) ;
#217 = DIRECTION ( 'NONE',  ( 1.000000000000000000, 0.000000000000000000, 0.000000000000000000 ) ) ;
#218 = ADVANCED_FACE ( 'NONE', ( #131 ), #175, .T. ) ;
#219 = AXIS2_PLACEMENT_3D ( 'NONE', #169, #97, #94 ) ;
#220 = DIRECTION ( 'NONE',  ( 1.000000000000000000, 0.000000000000000000, 0.000000000000000000 ) ) ;
#221 = CC_DESIGN_DATE_AND_TIME_ASSIGNMENT ( #250, #61, ( #70 ) ) ;
#222 = DIRECTION ( 'NONE',  ( -0.000000000000000000, -0.000000000000000000, -1.000000000000000000 ) ) ;
#223 = CALENDAR_DATE ( 2022, 7, 7 ) ;
#224 = DIRECTION ( 'NONE',  ( 0.000000000000000000, -1.000000000000000000, 0.000000000000000000 ) ) ;
#225 = APPROVAL_DATE_TIME ( #247, #86 ) ;
#226 = DIRECTION ( 'NONE',  ( 1.000000000000000000, 0.000000000000000000, -0.000000000000000000 ) ) ;
#227 = EDGE_CURVE ( 'NONE', #190, #95, #60, .T. ) ;
#228 = LINE ( 'NONE', #246, #89 ) ;
#229 = DIRECTION ( 'NONE',  ( 1.000000000000000000, 0.000000000000000000, 0.000000000000000000 ) ) ;
#230 = SECURITY_CLASSIFICATION_LEVEL ( 'unclassified' ) ;
#231 = ADVANCED_FACE ( 'NONE', ( #83 ), #289, .F. ) ;
#232 = EDGE_CURVE ( 'NONE', #78, #91, #68, .T. ) ;
#233 = CC_DESIGN_APPROVAL ( #242, ( #70 ) ) ;
#234 = UNCERTAINTY_MEASURE_WITH_UNIT (LENGTH_MEASURE( 1.000000000000000082E-05 ), #159, 'distance_accuracy_value', 'NONE');
#235 = CARTESIAN_POINT ( 'NONE',  ( -2.799999999999999822, 3.429011037612588783E-16, 3.199999999999980638 ) ) ;
#236 = ORIENTED_EDGE ( 'NONE', *, *, #134, .T. ) ;
#237 = CIRCLE ( 'NONE', #146, 2.600000000000000089 ) ;
#238 = VERTEX_POINT ( 'NONE', #151 ) ;
#239 = LOCAL_TIME ( 14, 44, 21.00000000000000000, #204 ) ;
#240 = DIRECTION ( 'NONE',  ( -0.000000000000000000, -0.000000000000000000, -1.000000000000000000 ) ) ;
#241 = CARTESIAN_POINT ( 'NONE',  ( 0.000000000000000000, 0.000000000000000000, 3.199999999999980638 ) ) ;
#242 = APPROVAL ( #208, 'NEURÈENÝ' ) ;
#243 = AXIS2_PLACEMENT_3D ( 'NONE', #126, #224, #33 ) ;
#244 = LINE ( 'NONE', #293, #163 ) ;
#245 = DATE_AND_TIME ( #152, #161 ) ;
#246 = CARTESIAN_POINT ( 'NONE',  ( -2.600000000000000089, 0.000000000000000000, 503.0000000000000000 ) ) ;
#247 = DATE_AND_TIME ( #176, #303 ) ;
#248 = CARTESIAN_POINT ( 'NONE',  ( 0.000000000000000000, 0.000000000000000000, 3.000000000000000000 ) ) ;
#249 = DIRECTION ( 'NONE',  ( 1.000000000000000000, 0.000000000000000000, 0.000000000000000000 ) ) ;
#250 = DATE_AND_TIME ( #223, #62 ) ;
#251 = APPLICATION_CONTEXT ( 'configuration controlled 3d designs of mechanical parts and assemblies' ) ;
#252 = COORDINATED_UNIVERSAL_TIME_OFFSET ( 1, 0, .AHEAD. ) ;
#253 = EDGE_LOOP ( 'NONE', ( #40, #21, #17, #51 ) ) ;
#254 = CC_DESIGN_PERSON_AND_ORGANIZATION_ASSIGNMENT ( #13, #266, ( #267 ) ) ;
#255 = ORIENTED_EDGE ( 'NONE', *, *, #119, .T. ) ;
#256 = CC_DESIGN_PERSON_AND_ORGANIZATION_ASSIGNMENT ( #132, #206, ( #96 ) ) ;
#257 = DIRECTION ( 'NONE',  ( 1.224646799147353207E-16, 1.000000000000000000, -0.000000000000000000 ) ) ;
#258 = ADVANCED_FACE ( 'NONE', ( #291 ), #205, .T. ) ;
#259 = DIRECTION ( 'NONE',  ( -1.000000000000000000, 0.000000000000000000, 0.000000000000000000 ) ) ;
#260 = CARTESIAN_POINT ( 'NONE',  ( 0.000000000000000000, 0.000000000000000000, 3.199999999999980638 ) ) ;
#261 = VECTOR ( 'NONE', #296, 1000.000000000000000 ) ;
#262 = CARTESIAN_POINT ( 'NONE',  ( 2.600000000000000089, 3.184081677783118191E-16, 3.199999999999980638 ) ) ;
#263 = FACE_OUTER_BOUND ( 'NONE', #71, .T. ) ;
#264 = CARTESIAN_POINT ( 'NONE',  ( 5.000000000000000000, 6.123233995736766282E-16, 3.000000000000000000 ) ) ;
#265 = CARTESIAN_POINT ( 'NONE',  ( 0.000000000000000000, 0.000000000000000000, 3.199999999999980638 ) ) ;
#266 = PERSON_AND_ORGANIZATION_ROLE ( 'classification_officer' ) ;
#267 = SECURITY_CLASSIFICATION ( '', '', #230 ) ;
#268 = DIRECTION ( 'NONE',  ( 1.000000000000000000, 0.000000000000000000, 0.000000000000000000 ) ) ;
#269 = MECHANICAL_CONTEXT ( 'NONE', #118, 'mechanical' ) ;
#270 = CARTESIAN_POINT ( 'NONE',  ( 2.799999999999999822, 0.000000000000000000, 2.999999999999990674 ) ) ;
#271 = DIRECTION ( 'NONE',  ( 0.000000000000000000, 0.000000000000000000, 1.000000000000000000 ) ) ;
#272 = DIRECTION ( 'NONE',  ( 1.000000000000000000, 0.000000000000000000, 0.000000000000000000 ) ) ;
#273 = VECTOR ( 'NONE', #300, 1000.000000000000000 ) ;
#274 = EDGE_CURVE ( 'NONE', #38, #15, #244, .T. ) ;
#275 = ORIENTED_EDGE ( 'NONE', *, *, #22, .T. ) ;
#276 = CC_DESIGN_SECURITY_CLASSIFICATION ( #267, ( #96 ) ) ;
#277 = PERSON_AND_ORGANIZATION_ROLE ( 'design_owner' ) ;
#278 = AXIS2_PLACEMENT_3D ( 'NONE', #12, #87, #180 ) ;
#279 = EDGE_LOOP ( 'NONE', ( #145, #213 ) ) ;
#280 = LOCAL_TIME ( 14, 44, 21.00000000000000000, #252 ) ;
#281 = ORIENTED_EDGE ( 'NONE', *, *, #48, .T. ) ;
#282 = VERTEX_POINT ( 'NONE', #177 ) ;
#283 = ADVANCED_FACE ( 'NONE', ( #133 ), #297, .T. ) ;
#284 = AXIS2_PLACEMENT_3D ( 'NONE', #248, #179, #7 ) ;
#285 = FACE_OUTER_BOUND ( 'NONE', #123, .T. ) ;
#286 = DIRECTION ( 'NONE',  ( 0.000000000000000000, 0.000000000000000000, 1.000000000000000000 ) ) ;
#287 = DIRECTION ( 'NONE',  ( 0.000000000000000000, 0.000000000000000000, 1.000000000000000000 ) ) ;
#288 = PRODUCT ( 'f361', 'f361', '', ( #269 ) ) ;
#289 = TOROIDAL_SURFACE ( 'NONE', #14, 2.799999999999999822, 0.2000000000000000111 ) ;
#290 = DIRECTION ( 'NONE',  ( -1.000000000000000000, 0.000000000000000000, 0.000000000000000000 ) ) ;
#291 = FACE_OUTER_BOUND ( 'NONE', #211, .T. ) ;
#292 = PRODUCT_DEFINITION_SHAPE ( 'NONE', 'NONE',  #70 ) ;
#293 = CARTESIAN_POINT ( 'NONE',  ( -5.000000000000000000, 0.000000000000000000, 3.000000000000000000 ) ) ;
#294 = APPROVAL_ROLE ( '' ) ;
#295 = CLOSED_SHELL ( 'NONE', ( #44, #283, #64, #99, #104, #77, #218, #258, #231 ) ) ;
#296 = DIRECTION ( 'NONE',  ( -0.000000000000000000, -0.000000000000000000, -1.000000000000000000 ) ) ;
#297 = CYLINDRICAL_SURFACE ( 'NONE', #278, 2.600000000000000089 ) ;
#298 = PERSON_AND_ORGANIZATION ( #36, #69 ) ;
#299 = EDGE_CURVE ( 'NONE', #91, #78, #237, .T. ) ;
#300 = DIRECTION ( 'NONE',  ( -0.000000000000000000, -0.000000000000000000, -1.000000000000000000 ) ) ;
#301 = CALENDAR_DATE ( 2022, 7, 7 ) ;
#302 = AXIS2_PLACEMENT_3D ( 'NONE', #306, #101, #4 ) ;
#303 = LOCAL_TIME ( 14, 44, 21.00000000000000000, #82 ) ;
#304 = ORIENTED_EDGE ( 'NONE', *, *, #166, .F. ) ;
#305 = ORIENTED_EDGE ( 'NONE', *, *, #125, .T. ) ;
#306 = CARTESIAN_POINT ( 'NONE',  ( 0.000000000000000000, 0.000000000000000000, 3.000000000000000000 ) ) ;
#307 = DIRECTION ( 'NONE',  ( 0.000000000000000000, 0.000000000000000000, 1.000000000000000000 ) ) ;
ENDSEC;
END-ISO-10303-21;
