ISO-10303-21;
HEADER;
FILE_DESCRIPTION (( 'STEP AP203' ),
    '1' );
FILE_NAME ('87bd.STEP',
    '2022-07-07T12:56:51',
    ( '' ),
    ( '' ),
    'SwSTEP 2.0',
    'SolidWorks 2019',
    '' );
FILE_SCHEMA (( 'CONFIG_CONTROL_DESIGN' ));
ENDSEC;

DATA;
#1 = EDGE_LOOP ( 'NONE', ( #46, #167, #143, #287 ) ) ;
#2 = AXIS2_PLACEMENT_3D ( 'NONE', #173, #216, #126 ) ;
#3 = EDGE_LOOP ( 'NONE', ( #146, #25, #83, #211 ) ) ;
#4 = DIRECTION ( 'NONE',  ( -0.000000000000000000, -0.000000000000000000, -1.000000000000000000 ) ) ;
#5 = VERTEX_POINT ( 'NONE', #117 ) ;
#6 = CARTESIAN_POINT ( 'NONE',  ( 1.300000000000000266, 0.000000000000000000, 1.999999999999989564 ) ) ;
#7 = DIRECTION ( 'NONE',  ( 1.000000000000000000, 0.000000000000000000, 0.000000000000000000 ) ) ;
#8 = AXIS2_PLACEMENT_3D ( 'NONE', #203, #74, #162 ) ;
#9 = PLANE ( 'NONE',  #174 ) ;
#10 = COORDINATED_UNIVERSAL_TIME_OFFSET ( 1, 0, .AHEAD. ) ;
#11 = FACE_OUTER_BOUND ( 'NONE', #164, .T. ) ;
#12 = PERSON_AND_ORGANIZATION_ROLE ( 'creator' ) ;
#13 = DIRECTION ( 'NONE',  ( 1.000000000000000000, 0.000000000000000000, 0.000000000000000000 ) ) ;
#14 = CARTESIAN_POINT ( 'NONE',  ( 1.300000000000000266, 0.000000000000000000, 2.199999999999979750 ) ) ;
#15 = EDGE_CURVE ( 'NONE', #232, #44, #24, .T. ) ;
#16 = ORGANIZATION ( 'NEURÈENÝ', 'NEURÈENÝ', '' ) ;
#17 = DATE_AND_TIME ( #152, #96 ) ;
#18 = EDGE_CURVE ( 'NONE', #260, #284, #163, .T. ) ;
#19 = CALENDAR_DATE ( 2022, 7, 7 ) ;
#20 = ADVANCED_FACE ( 'NONE', ( #95 ), #97, .F. ) ;
#21 = PRODUCT_DEFINITION_FORMATION_WITH_SPECIFIED_SOURCE ( 'LIBOVOLNÝ', '', #80, .NOT_KNOWN. ) ;
#22 = DIRECTION ( 'NONE',  ( 1.000000000000000000, 0.000000000000000000, 0.000000000000000000 ) ) ;
#23 = ORIENTED_EDGE ( 'NONE', *, *, #236, .T. ) ;
#24 = CIRCLE ( 'NONE', #8, 2.000000000000000000 ) ;
#25 = ORIENTED_EDGE ( 'NONE', *, *, #197, .F. ) ;
#26 = EDGE_CURVE ( 'NONE', #170, #188, #231, .T. ) ;
#27 = ORIENTED_EDGE ( 'NONE', *, *, #285, .T. ) ;
#28 = VECTOR ( 'NONE', #202, 1000.000000000000000 ) ;
#29 = ORIENTED_EDGE ( 'NONE', *, *, #194, .F. ) ;
#30 = CARTESIAN_POINT ( 'NONE',  ( 1.100000000000000089, 1.347111479062088503E-16, 317.0000000000000000 ) ) ;
#31 = ORIENTED_EDGE ( 'NONE', *, *, #15, .T. ) ;
#32 = DIRECTION ( 'NONE',  ( 0.000000000000000000, 0.000000000000000000, 1.000000000000000000 ) ) ;
#33 = DIRECTION ( 'NONE',  ( -1.000000000000000000, 0.000000000000000000, 0.000000000000000000 ) ) ;
#34 = CC_DESIGN_APPROVAL ( #253, ( #124 ) ) ;
#35 = APPROVAL_STATUS ( 'not_yet_approved' ) ;
#36 = PERSON_AND_ORGANIZATION_ROLE ( 'creator' ) ;
#37 =( LENGTH_UNIT ( ) NAMED_UNIT ( * ) SI_UNIT ( .MILLI., .METRE. ) );
#38 = CARTESIAN_POINT ( 'NONE',  ( 0.000000000000000000, 0.000000000000000000, 317.0000000000000000 ) ) ;
#39 = DIRECTION ( 'NONE',  ( 1.000000000000000000, 0.000000000000000000, -0.000000000000000000 ) ) ;
#40 = AXIS2_PLACEMENT_3D ( 'NONE', #38, #301, #91 ) ;
#41 = APPLICATION_PROTOCOL_DEFINITION ( 'international standard', 'config_control_design', 1994, #136 ) ;
#42 = AXIS2_PLACEMENT_3D ( 'NONE', #85, #104, #291 ) ;
#43 = CC_DESIGN_DATE_AND_TIME_ASSIGNMENT ( #200, #128, ( #124 ) ) ;
#44 = VERTEX_POINT ( 'NONE', #45 ) ;
#45 = CARTESIAN_POINT ( 'NONE',  ( 2.000000000000000000, 2.449293598294706414E-16, 0.000000000000000000 ) ) ;
#46 = ORIENTED_EDGE ( 'NONE', *, *, #134, .F. ) ;
#47 = EDGE_CURVE ( 'NONE', #284, #227, #78, .T. ) ;
#48 = AXIS2_PLACEMENT_3D ( 'NONE', #226, #184, #22 ) ;
#49 = ORIENTED_EDGE ( 'NONE', *, *, #236, .F. ) ;
#50 = EDGE_CURVE ( 'NONE', #262, #227, #261, .T. ) ;
#51 = CC_DESIGN_PERSON_AND_ORGANIZATION_ASSIGNMENT ( #114, #36, ( #21 ) ) ;
#52 = ORIENTED_EDGE ( 'NONE', *, *, #18, .F. ) ;
#53 = AXIS2_PLACEMENT_3D ( 'NONE', #268, #123, #55 ) ;
#54 = ORIENTED_EDGE ( 'NONE', *, *, #252, .F. ) ;
#55 = DIRECTION ( 'NONE',  ( 1.000000000000000000, 0.000000000000000000, 0.000000000000000000 ) ) ;
#56 = DIRECTION ( 'NONE',  ( 0.000000000000000000, 0.000000000000000000, 1.000000000000000000 ) ) ;
#57 = CARTESIAN_POINT ( 'NONE',  ( 0.000000000000000000, 0.000000000000000000, 2.000000000000000000 ) ) ;
#58 = EDGE_CURVE ( 'NONE', #290, #5, #237, .T. ) ;
#59 = CC_DESIGN_DATE_AND_TIME_ASSIGNMENT ( #110, #245, ( #258 ) ) ;
#60 = DIRECTION ( 'NONE',  ( 1.000000000000000000, 0.000000000000000000, 0.000000000000000000 ) ) ;
#61 = AXIS2_PLACEMENT_3D ( 'NONE', #246, #32, #60 ) ;
#62 = APPROVAL_ROLE ( '' ) ;
#63 = FACE_BOUND ( 'NONE', #165, .T. ) ;
#64 = DIRECTION ( 'NONE',  ( -0.000000000000000000, -0.000000000000000000, -1.000000000000000000 ) ) ;
#65 = APPROVAL_DATE_TIME ( #179, #253 ) ;
#66 = CARTESIAN_POINT ( 'NONE',  ( 0.000000000000000000, 0.000000000000000000, 2.000000000000000000 ) ) ;
#67 = DIRECTION ( 'NONE',  ( 0.000000000000000000, 0.000000000000000000, -1.000000000000000000 ) ) ;
#68 = PERSON_AND_ORGANIZATION_ROLE ( 'classification_officer' ) ;
#69 = LOCAL_TIME ( 14, 56, 51.00000000000000000, #180 ) ;
#70 = APPROVAL_DATE_TIME ( #277, #142 ) ;
#71 = ORIENTED_EDGE ( 'NONE', *, *, #265, .T. ) ;
#72 = CLOSED_SHELL ( 'NONE', ( #77, #102, #132, #228, #254, #20, #161, #215, #233 ) ) ;
#73 = AXIS2_PLACEMENT_3D ( 'NONE', #210, #84, #172 ) ;
#74 = DIRECTION ( 'NONE',  ( 0.000000000000000000, 0.000000000000000000, 1.000000000000000000 ) ) ;
#75 = ORIENTED_EDGE ( 'NONE', *, *, #206, .T. ) ;
#76 = ORIENTED_EDGE ( 'NONE', *, *, #58, .T. ) ;
#77 = ADVANCED_FACE ( 'NONE', ( #193 ), #289, .F. ) ;
#78 = CIRCLE ( 'NONE', #225, 0.2000000000000000944 ) ;
#79 = ORIENTED_EDGE ( 'NONE', *, *, #265, .F. ) ;
#80 = PRODUCT ( '87bd', '87bd', '', ( #240 ) ) ;
#81 = CC_DESIGN_APPROVAL ( #160, ( #258 ) ) ;
#82 = CARTESIAN_POINT ( 'NONE',  ( 2.000000000000000000, 2.449293598294706414E-16, 2.000000000000000000 ) ) ;
#83 = ORIENTED_EDGE ( 'NONE', *, *, #18, .T. ) ;
#84 = DIRECTION ( 'NONE',  ( -0.000000000000000000, -0.000000000000000000, -1.000000000000000000 ) ) ;
#85 = CARTESIAN_POINT ( 'NONE',  ( 0.000000000000000000, 0.000000000000000000, 2.199999999999979750 ) ) ;
#86 = CARTESIAN_POINT ( 'NONE',  ( 0.000000000000000000, 0.000000000000000000, 2.000000000000000000 ) ) ;
#87 = CARTESIAN_POINT ( 'NONE',  ( -2.000000000000000000, 0.000000000000000000, 2.000000000000000000 ) ) ;
#88 = CIRCLE ( 'NONE', #297, 1.100000000000000089 ) ;
#89 = PERSON_AND_ORGANIZATION ( #187, #16 ) ;
#90 =( NAMED_UNIT ( * ) SI_UNIT ( $, .STERADIAN. ) SOLID_ANGLE_UNIT ( ) );
#91 = DIRECTION ( 'NONE',  ( -1.000000000000000000, 0.000000000000000000, 0.000000000000000000 ) ) ;
#92 = PERSON_AND_ORGANIZATION ( #187, #16 ) ;
#93 = PERSON_AND_ORGANIZATION ( #187, #16 ) ;
#94 = AXIS2_PLACEMENT_3D ( 'NONE', #66, #221, #33 ) ;
#95 = FACE_OUTER_BOUND ( 'NONE', #99, .T. ) ;
#96 = LOCAL_TIME ( 14, 56, 51.00000000000000000, #176 ) ;
#97 = PLANE ( 'NONE',  #306 ) ;
#98 = VECTOR ( 'NONE', #148, 1000.000000000000000 ) ;
#99 = EDGE_LOOP ( 'NONE', ( #305, #139 ) ) ;
#100 = DIRECTION ( 'NONE',  ( 0.000000000000000000, 0.000000000000000000, 1.000000000000000000 ) ) ;
#101 = ORIENTED_EDGE ( 'NONE', *, *, #141, .F. ) ;
#102 = ADVANCED_FACE ( 'NONE', ( #149 ), #292, .T. ) ;
#103 = CC_DESIGN_APPROVAL ( #142, ( #21 ) ) ;
#104 = DIRECTION ( 'NONE',  ( 0.000000000000000000, 0.000000000000000000, 1.000000000000000000 ) ) ;
#105 = DIRECTION ( 'NONE',  ( -0.000000000000000000, -0.000000000000000000, -1.000000000000000000 ) ) ;
#106 = ADVANCED_BREP_SHAPE_REPRESENTATION ( '87bd', ( #196, #2 ), #135 ) ;
#107 = FACE_OUTER_BOUND ( 'NONE', #186, .T. ) ;
#108 = APPROVAL_STATUS ( 'not_yet_approved' ) ;
#109 = PLANE ( 'NONE',  #255 ) ;
#110 = DATE_AND_TIME ( #133, #69 ) ;
#111 = DIRECTION ( 'NONE',  ( 1.000000000000000000, 0.000000000000000000, -0.000000000000000000 ) ) ;
#112 = CARTESIAN_POINT ( 'NONE',  ( 0.000000000000000000, 0.000000000000000000, 317.0000000000000000 ) ) ;
#113 = CIRCLE ( 'NONE', #204, 0.2000000000000000944 ) ;
#114 = PERSON_AND_ORGANIZATION ( #187, #16 ) ;
#115 = VECTOR ( 'NONE', #64, 1000.000000000000000 ) ;
#116 = CARTESIAN_POINT ( 'NONE',  ( -1.300000000000000266, 1.592040838891559342E-16, 2.199999999999979750 ) ) ;
#117 = CARTESIAN_POINT ( 'NONE',  ( 1.100000000000000089, 1.347111479062088503E-16, 2.199999999999979750 ) ) ;
#118 = VECTOR ( 'NONE', #105, 1000.000000000000000 ) ;
#119 = AXIS2_PLACEMENT_3D ( 'NONE', #57, #4, #121 ) ;
#120 = ORIENTED_EDGE ( 'NONE', *, *, #26, .F. ) ;
#121 = DIRECTION ( 'NONE',  ( -1.000000000000000000, 0.000000000000000000, 0.000000000000000000 ) ) ;
#122 = ORIENTED_EDGE ( 'NONE', *, *, #285, .F. ) ;
#123 = DIRECTION ( 'NONE',  ( 0.000000000000000000, 0.000000000000000000, 1.000000000000000000 ) ) ;
#124 = SECURITY_CLASSIFICATION ( '', '', #244 ) ;
#125 = CARTESIAN_POINT ( 'NONE',  ( 1.100000000000000089, 1.347111479062088503E-16, 317.0000000000000000 ) ) ;
#126 = DIRECTION ( 'NONE',  ( 1.000000000000000000, 0.000000000000000000, 0.000000000000000000 ) ) ;
#127 = FACE_OUTER_BOUND ( 'NONE', #3, .T. ) ;
#128 = DATE_TIME_ROLE ( 'classification_date' ) ;
#129 = LINE ( 'NONE', #87, #115 ) ;
#130 = PERSON_AND_ORGANIZATION ( #187, #16 ) ;
#131 = CARTESIAN_POINT ( 'NONE',  ( 2.000000000000000000, 2.449293598294706414E-16, 2.000000000000000000 ) ) ;
#132 = ADVANCED_FACE ( 'NONE', ( #242 ), #213, .T. ) ;
#133 = CALENDAR_DATE ( 2022, 7, 7 ) ;
#134 = EDGE_CURVE ( 'NONE', #284, #5, #88, .T. ) ;
#135 =( GEOMETRIC_REPRESENTATION_CONTEXT ( 3 ) GLOBAL_UNCERTAINTY_ASSIGNED_CONTEXT ( ( #294 ) ) GLOBAL_UNIT_ASSIGNED_CONTEXT ( ( #37, #300, #90 ) ) REPRESENTATION_CONTEXT ( 'NONE', 'WORKASPACE' ) );
#136 = APPLICATION_CONTEXT ( 'configuration controlled 3d designs of mechanical parts and assemblies' ) ;
#137 = DIRECTION ( 'NONE',  ( 1.000000000000000000, 0.000000000000000000, -0.000000000000000000 ) ) ;
#138 = ORIENTED_EDGE ( 'NONE', *, *, #197, .T. ) ;
#139 = ORIENTED_EDGE ( 'NONE', *, *, #189, .F. ) ;
#140 = CIRCLE ( 'NONE', #61, 1.100000000000000089 ) ;
#141 = EDGE_CURVE ( 'NONE', #188, #44, #169, .T. ) ;
#142 = APPROVAL ( #250, 'NEURÈENÝ' ) ;
#143 = ORIENTED_EDGE ( 'NONE', *, *, #50, .F. ) ;
#144 = CIRCLE ( 'NONE', #223, 2.000000000000000000 ) ;
#145 = PRODUCT_RELATED_PRODUCT_CATEGORY ( 'detail', '', ( #80 ) ) ;
#146 = ORIENTED_EDGE ( 'NONE', *, *, #58, .F. ) ;
#147 = CARTESIAN_POINT ( 'NONE',  ( -1.100000000000000089, 0.000000000000000000, 317.0000000000000000 ) ) ;
#148 = DIRECTION ( 'NONE',  ( -0.000000000000000000, -0.000000000000000000, -1.000000000000000000 ) ) ;
#149 = FACE_OUTER_BOUND ( 'NONE', #191, .T. ) ;
#150 = CIRCLE ( 'NONE', #214, 1.100000000000000089 ) ;
#151 = DIRECTION ( 'NONE',  ( -0.000000000000000000, -0.000000000000000000, -1.000000000000000000 ) ) ;
#152 = CALENDAR_DATE ( 2022, 7, 7 ) ;
#153 = PERSON_AND_ORGANIZATION ( #187, #16 ) ;
#154 = DIRECTION ( 'NONE',  ( 0.000000000000000000, 0.000000000000000000, 1.000000000000000000 ) ) ;
#155 = PERSON_AND_ORGANIZATION ( #187, #16 ) ;
#156 = CARTESIAN_POINT ( 'NONE',  ( -1.100000000000000089, 0.000000000000000000, 2.199999999999979750 ) ) ;
#157 = DIRECTION ( 'NONE',  ( 0.000000000000000000, 0.000000000000000000, 1.000000000000000000 ) ) ;
#158 = CIRCLE ( 'NONE', #270, 1.300000000000000266 ) ;
#159 = APPROVAL_ROLE ( '' ) ;
#160 = APPROVAL ( #108, 'NEURÈENÝ' ) ;
#161 = ADVANCED_FACE ( 'NONE', ( #127 ), #199, .T. ) ;
#162 = DIRECTION ( 'NONE',  ( 1.000000000000000000, 0.000000000000000000, 0.000000000000000000 ) ) ;
#163 = LINE ( 'NONE', #307, #28 ) ;
#164 = EDGE_LOOP ( 'NONE', ( #138, #23 ) ) ;
#165 = EDGE_LOOP ( 'NONE', ( #281, #282 ) ) ;
#166 = LOCAL_TIME ( 14, 56, 51.00000000000000000, #10 ) ;
#167 = ORIENTED_EDGE ( 'NONE', *, *, #47, .T. ) ;
#168 = ORIENTED_EDGE ( 'NONE', *, *, #26, .T. ) ;
#169 = LINE ( 'NONE', #82, #98 ) ;
#170 = VERTEX_POINT ( 'NONE', #296 ) ;
#171 = DIRECTION ( 'NONE',  ( 1.000000000000000000, 0.000000000000000000, 0.000000000000000000 ) ) ;
#172 = DIRECTION ( 'NONE',  ( -1.000000000000000000, 0.000000000000000000, 0.000000000000000000 ) ) ;
#173 = CARTESIAN_POINT ( 'NONE',  ( 0.000000000000000000, 0.000000000000000000, 0.000000000000000000 ) ) ;
#174 = AXIS2_PLACEMENT_3D ( 'NONE', #192, #56, #111 ) ;
#175 = DIRECTION ( 'NONE',  ( 0.000000000000000000, 0.000000000000000000, 1.000000000000000000 ) ) ;
#176 = COORDINATED_UNIVERSAL_TIME_OFFSET ( 1, 0, .AHEAD. ) ;
#177 = CARTESIAN_POINT ( 'NONE',  ( -2.000000000000000000, 0.000000000000000000, 0.000000000000000000 ) ) ;
#178 = DIRECTION ( 'NONE',  ( 0.000000000000000000, -1.000000000000000000, 0.000000000000000000 ) ) ;
#179 = DATE_AND_TIME ( #198, #166 ) ;
#180 = COORDINATED_UNIVERSAL_TIME_OFFSET ( 1, 0, .AHEAD. ) ;
#181 = AXIS2_PLACEMENT_3D ( 'NONE', #293, #269, #171 ) ;
#182 = DIRECTION ( 'NONE',  ( -1.000000000000000000, 1.224646799147353207E-16, 0.000000000000000000 ) ) ;
#183 = CIRCLE ( 'NONE', #243, 2.000000000000000000 ) ;
#184 = DIRECTION ( 'NONE',  ( 0.000000000000000000, 0.000000000000000000, 1.000000000000000000 ) ) ;
#185 = ORIENTED_EDGE ( 'NONE', *, *, #194, .T. ) ;
#186 = EDGE_LOOP ( 'NONE', ( #168, #71 ) ) ;
#187 = PERSON ( 'NEURÈENÝ', 'NEURÈENÝ', 'NEURÈENÝ', ('NEURÈENÝ'), ('NEURÈENÝ'), ('NEURÈENÝ') ) ;
#188 = VERTEX_POINT ( 'NONE', #131 ) ;
#189 = EDGE_CURVE ( 'NONE', #44, #232, #183, .T. ) ;
#190 = CARTESIAN_POINT ( 'NONE',  ( 0.000000000000000000, 0.000000000000000000, 2.000000000000000000 ) ) ;
#191 = EDGE_LOOP ( 'NONE', ( #49, #76, #27, #52 ) ) ;
#192 = CARTESIAN_POINT ( 'NONE',  ( 0.000000000000000000, 0.000000000000000000, 2.000000000000000000 ) ) ;
#193 = FACE_OUTER_BOUND ( 'NONE', #1, .T. ) ;
#194 = EDGE_CURVE ( 'NONE', #170, #232, #129, .T. ) ;
#195 = FACE_OUTER_BOUND ( 'NONE', #229, .T. ) ;
#196 = MANIFOLD_SOLID_BREP ( 'Zaoblit1', #72 ) ;
#197 = EDGE_CURVE ( 'NONE', #260, #290, #150, .T. ) ;
#198 = CALENDAR_DATE ( 2022, 7, 7 ) ;
#199 = CYLINDRICAL_SURFACE ( 'NONE', #40, 1.100000000000000089 ) ;
#200 = DATE_AND_TIME ( #295, #278 ) ;
#201 = CC_DESIGN_SECURITY_CLASSIFICATION ( #124, ( #21 ) ) ;
#202 = DIRECTION ( 'NONE',  ( -0.000000000000000000, -0.000000000000000000, -1.000000000000000000 ) ) ;
#203 = CARTESIAN_POINT ( 'NONE',  ( 0.000000000000000000, 0.000000000000000000, 0.000000000000000000 ) ) ;
#204 = AXIS2_PLACEMENT_3D ( 'NONE', #14, #178, #67 ) ;
#205 = CC_DESIGN_PERSON_AND_ORGANIZATION_ASSIGNMENT ( #130, #220, ( #21 ) ) ;
#206 = EDGE_CURVE ( 'NONE', #5, #262, #113, .T. ) ;
#207 = APPROVAL_PERSON_ORGANIZATION ( #89, #160, #62 ) ;
#208 = ORIENTED_EDGE ( 'NONE', *, *, #189, .T. ) ;
#209 = PRODUCT_DEFINITION_SHAPE ( 'NONE', 'NONE',  #258 ) ;
#210 = CARTESIAN_POINT ( 'NONE',  ( 0.000000000000000000, 0.000000000000000000, 317.0000000000000000 ) ) ;
#211 = ORIENTED_EDGE ( 'NONE', *, *, #134, .T. ) ;
#212 = DIRECTION ( 'NONE',  ( 0.000000000000000000, 0.000000000000000000, 1.000000000000000000 ) ) ;
#213 = CYLINDRICAL_SURFACE ( 'NONE', #119, 2.000000000000000000 ) ;
#214 = AXIS2_PLACEMENT_3D ( 'NONE', #276, #175, #222 ) ;
#215 = ADVANCED_FACE ( 'NONE', ( #11 ), #109, .T. ) ;
#216 = DIRECTION ( 'NONE',  ( 0.000000000000000000, 0.000000000000000000, 1.000000000000000000 ) ) ;
#217 = APPROVAL_ROLE ( '' ) ;
#218 = APPLICATION_PROTOCOL_DEFINITION ( 'international standard', 'config_control_design', 1994, #299 ) ;
#219 = CARTESIAN_POINT ( 'NONE',  ( -1.300000000000000266, 1.592040838891559342E-16, 1.999999999999989564 ) ) ;
#220 = PERSON_AND_ORGANIZATION_ROLE ( 'design_supplier' ) ;
#221 = DIRECTION ( 'NONE',  ( -0.000000000000000000, -0.000000000000000000, -1.000000000000000000 ) ) ;
#222 = DIRECTION ( 'NONE',  ( 1.000000000000000000, 0.000000000000000000, 0.000000000000000000 ) ) ;
#223 = AXIS2_PLACEMENT_3D ( 'NONE', #86, #212, #13 ) ;
#224 = COORDINATED_UNIVERSAL_TIME_OFFSET ( 1, 0, .AHEAD. ) ;
#225 = AXIS2_PLACEMENT_3D ( 'NONE', #116, #257, #182 ) ;
#226 = CARTESIAN_POINT ( 'NONE',  ( 0.000000000000000000, 0.000000000000000000, 2.000000000000000000 ) ) ;
#227 = VERTEX_POINT ( 'NONE', #219 ) ;
#228 = ADVANCED_FACE ( 'NONE', ( #195 ), #272, .T. ) ;
#229 = EDGE_LOOP ( 'NONE', ( #101, #120, #185, #31 ) ) ;
#230 = LOCAL_TIME ( 14, 56, 51.00000000000000000, #224 ) ;
#231 = CIRCLE ( 'NONE', #48, 2.000000000000000000 ) ;
#232 = VERTEX_POINT ( 'NONE', #177 ) ;
#233 = ADVANCED_FACE ( 'NONE', ( #275 ), #280, .F. ) ;
#234 = CIRCLE ( 'NONE', #42, 1.100000000000000089 ) ;
#235 = EDGE_LOOP ( 'NONE', ( #79, #264, #208, #29 ) ) ;
#236 = EDGE_CURVE ( 'NONE', #290, #260, #140, .T. ) ;
#237 = LINE ( 'NONE', #30, #118 ) ;
#238 = CC_DESIGN_PERSON_AND_ORGANIZATION_ASSIGNMENT ( #153, #298, ( #80 ) ) ;
#239 = EDGE_LOOP ( 'NONE', ( #259, #122, #75, #54 ) ) ;
#240 = MECHANICAL_CONTEXT ( 'NONE', #299, 'mechanical' ) ;
#241 = DIRECTION ( 'NONE',  ( -0.000000000000000000, -0.000000000000000000, -1.000000000000000000 ) ) ;
#242 = FACE_OUTER_BOUND ( 'NONE', #235, .T. ) ;
#243 = AXIS2_PLACEMENT_3D ( 'NONE', #249, #154, #247 ) ;
#244 = SECURITY_CLASSIFICATION_LEVEL ( 'unclassified' ) ;
#245 = DATE_TIME_ROLE ( 'creation_date' ) ;
#246 = CARTESIAN_POINT ( 'NONE',  ( 0.000000000000000000, 0.000000000000000000, 317.0000000000000000 ) ) ;
#247 = DIRECTION ( 'NONE',  ( 1.000000000000000000, 0.000000000000000000, 0.000000000000000000 ) ) ;
#248 = SHAPE_DEFINITION_REPRESENTATION ( #209, #106 ) ;
#249 = CARTESIAN_POINT ( 'NONE',  ( 0.000000000000000000, 0.000000000000000000, 0.000000000000000000 ) ) ;
#250 = APPROVAL_STATUS ( 'not_yet_approved' ) ;
#251 = APPROVAL_PERSON_ORGANIZATION ( #93, #142, #217 ) ;
#252 = EDGE_CURVE ( 'NONE', #227, #262, #158, .T. ) ;
#253 = APPROVAL ( #35, 'NEURÈENÝ' ) ;
#254 = ADVANCED_FACE ( 'NONE', ( #63, #107 ), #9, .T. ) ;
#255 = AXIS2_PLACEMENT_3D ( 'NONE', #112, #157, #39 ) ;
#256 = DIRECTION ( 'NONE',  ( 0.000000000000000000, 0.000000000000000000, 1.000000000000000000 ) ) ;
#257 = DIRECTION ( 'NONE',  ( 1.224646799147353207E-16, 1.000000000000000000, -0.000000000000000000 ) ) ;
#258 = PRODUCT_DEFINITION ( 'NEZNÁMÝ', '', #21, #273 ) ;
#259 = ORIENTED_EDGE ( 'NONE', *, *, #47, .F. ) ;
#260 = VERTEX_POINT ( 'NONE', #147 ) ;
#261 = CIRCLE ( 'NONE', #263, 1.300000000000000266 ) ;
#262 = VERTEX_POINT ( 'NONE', #6 ) ;
#263 = AXIS2_PLACEMENT_3D ( 'NONE', #190, #241, #7 ) ;
#264 = ORIENTED_EDGE ( 'NONE', *, *, #141, .T. ) ;
#265 = EDGE_CURVE ( 'NONE', #188, #170, #144, .T. ) ;
#266 = DIRECTION ( 'NONE',  ( 1.000000000000000000, 0.000000000000000000, 0.000000000000000000 ) ) ;
#267 = DIRECTION ( 'NONE',  ( 1.000000000000000000, 0.000000000000000000, 0.000000000000000000 ) ) ;
#268 = CARTESIAN_POINT ( 'NONE',  ( 0.000000000000000000, 0.000000000000000000, 2.199999999999979750 ) ) ;
#269 = DIRECTION ( 'NONE',  ( 0.000000000000000000, 0.000000000000000000, 1.000000000000000000 ) ) ;
#270 = AXIS2_PLACEMENT_3D ( 'NONE', #271, #151, #267 ) ;
#271 = CARTESIAN_POINT ( 'NONE',  ( 0.000000000000000000, 0.000000000000000000, 2.000000000000000000 ) ) ;
#272 = CYLINDRICAL_SURFACE ( 'NONE', #94, 2.000000000000000000 ) ;
#273 = DESIGN_CONTEXT ( 'detailed design', #136, 'design' ) ;
#274 = COORDINATED_UNIVERSAL_TIME_OFFSET ( 1, 0, .AHEAD. ) ;
#275 = FACE_OUTER_BOUND ( 'NONE', #239, .T. ) ;
#276 = CARTESIAN_POINT ( 'NONE',  ( 0.000000000000000000, 0.000000000000000000, 317.0000000000000000 ) ) ;
#277 = DATE_AND_TIME ( #19, #230 ) ;
#278 = LOCAL_TIME ( 14, 56, 51.00000000000000000, #274 ) ;
#279 = CC_DESIGN_PERSON_AND_ORGANIZATION_ASSIGNMENT ( #92, #68, ( #124 ) ) ;
#280 = TOROIDAL_SURFACE ( 'NONE', #181, 1.300000000000000266, 0.2000000000000000111 ) ;
#281 = ORIENTED_EDGE ( 'NONE', *, *, #50, .T. ) ;
#282 = ORIENTED_EDGE ( 'NONE', *, *, #252, .T. ) ;
#283 = CARTESIAN_POINT ( 'NONE',  ( 0.000000000000000000, 0.000000000000000000, 0.000000000000000000 ) ) ;
#284 = VERTEX_POINT ( 'NONE', #156 ) ;
#285 = EDGE_CURVE ( 'NONE', #5, #284, #234, .T. ) ;
#286 = CC_DESIGN_PERSON_AND_ORGANIZATION_ASSIGNMENT ( #302, #12, ( #258 ) ) ;
#287 = ORIENTED_EDGE ( 'NONE', *, *, #206, .F. ) ;
#288 = CARTESIAN_POINT ( 'NONE',  ( 0.000000000000000000, 0.000000000000000000, 2.199999999999979750 ) ) ;
#289 = TOROIDAL_SURFACE ( 'NONE', #53, 1.300000000000000266, 0.2000000000000000111 ) ;
#290 = VERTEX_POINT ( 'NONE', #125 ) ;
#291 = DIRECTION ( 'NONE',  ( 1.000000000000000000, 0.000000000000000000, 0.000000000000000000 ) ) ;
#292 = CYLINDRICAL_SURFACE ( 'NONE', #73, 1.100000000000000089 ) ;
#293 = CARTESIAN_POINT ( 'NONE',  ( 0.000000000000000000, 0.000000000000000000, 2.199999999999979750 ) ) ;
#294 = UNCERTAINTY_MEASURE_WITH_UNIT (LENGTH_MEASURE( 1.000000000000000082E-05 ), #37, 'distance_accuracy_value', 'NONE');
#295 = CALENDAR_DATE ( 2022, 7, 7 ) ;
#296 = CARTESIAN_POINT ( 'NONE',  ( -2.000000000000000000, 0.000000000000000000, 2.000000000000000000 ) ) ;
#297 = AXIS2_PLACEMENT_3D ( 'NONE', #288, #100, #266 ) ;
#298 = PERSON_AND_ORGANIZATION_ROLE ( 'design_owner' ) ;
#299 = APPLICATION_CONTEXT ( 'configuration controlled 3d designs of mechanical parts and assemblies' ) ;
#300 =( NAMED_UNIT ( * ) PLANE_ANGLE_UNIT ( ) SI_UNIT ( $, .RADIAN. ) );
#301 = DIRECTION ( 'NONE',  ( -0.000000000000000000, -0.000000000000000000, -1.000000000000000000 ) ) ;
#302 = PERSON_AND_ORGANIZATION ( #187, #16 ) ;
#303 = APPROVAL_DATE_TIME ( #17, #160 ) ;
#304 = APPROVAL_PERSON_ORGANIZATION ( #155, #253, #159 ) ;
#305 = ORIENTED_EDGE ( 'NONE', *, *, #15, .F. ) ;
#306 = AXIS2_PLACEMENT_3D ( 'NONE', #283, #256, #137 ) ;
#307 = CARTESIAN_POINT ( 'NONE',  ( -1.100000000000000089, 0.000000000000000000, 317.0000000000000000 ) ) ;
ENDSEC;
END-ISO-10303-21;
