ISO-10303-21;
HEADER;
FILE_DESCRIPTION (( 'STEP AP203' ),
    '1' );
FILE_NAME ('2bfc.STEP',
    '2022-07-07T12:42:04',
    ( '' ),
    ( '' ),
    'SwSTEP 2.0',
    'SolidWorks 2019',
    '' );
FILE_SCHEMA (( 'CONFIG_CONTROL_DESIGN' ));
ENDSEC;

DATA;
#1 = DIRECTION ( 'NONE',  ( 0.000000000000000000, 0.000000000000000000, 1.000000000000000000 ) ) ;
#2 = DIRECTION ( 'NONE',  ( 1.000000000000000000, 0.000000000000000000, -0.000000000000000000 ) ) ;
#3 = FACE_OUTER_BOUND ( 'NONE', #219, .T. ) ;
#4 = PRODUCT_RELATED_PRODUCT_CATEGORY ( 'detail', '', ( #103 ) ) ;
#5 = FACE_OUTER_BOUND ( 'NONE', #141, .T. ) ;
#6 = COORDINATED_UNIVERSAL_TIME_OFFSET ( 1, 0, .AHEAD. ) ;
#7 = PERSON_AND_ORGANIZATION ( #285, #193 ) ;
#8 = AXIS2_PLACEMENT_3D ( 'NONE', #59, #235, #117 ) ;
#9 = ORIENTED_EDGE ( 'NONE', *, *, #145, .T. ) ;
#10 = PERSON_AND_ORGANIZATION ( #285, #193 ) ;
#11 = ORIENTED_EDGE ( 'NONE', *, *, #148, .F. ) ;
#12 = DATE_TIME_ROLE ( 'classification_date' ) ;
#13 =( NAMED_UNIT ( * ) SI_UNIT ( $, .STERADIAN. ) SOLID_ANGLE_UNIT ( ) );
#14 = CIRCLE ( 'NONE', #115, 3.000000000000000444 ) ;
#15 = VERTEX_POINT ( 'NONE', #161 ) ;
#16 = CARTESIAN_POINT ( 'NONE',  ( -6.000000000000000888, 0.000000000000000000, 5.000000000000000000 ) ) ;
#17 = DIRECTION ( 'NONE',  ( -0.000000000000000000, -0.000000000000000000, -1.000000000000000000 ) ) ;
#18 = CC_DESIGN_APPROVAL ( #229, ( #231 ) ) ;
#19 = CYLINDRICAL_SURFACE ( 'NONE', #133, 6.000000000000000888 ) ;
#20 = DIRECTION ( 'NONE',  ( 1.000000000000000000, 0.000000000000000000, 0.000000000000000000 ) ) ;
#21 = CARTESIAN_POINT ( 'NONE',  ( 6.000000000000000888, 7.347880794884120722E-16, 5.000000000000000000 ) ) ;
#22 = CARTESIAN_POINT ( 'NONE',  ( 0.000000000000000000, 0.000000000000000000, 255.0000000000000000 ) ) ;
#23 = FACE_BOUND ( 'NONE', #198, .T. ) ;
#24 = DIRECTION ( 'NONE',  ( 1.000000000000000000, 0.000000000000000000, -0.000000000000000000 ) ) ;
#25 = DIRECTION ( 'NONE',  ( -0.000000000000000000, -0.000000000000000000, -1.000000000000000000 ) ) ;
#26 = PERSON_AND_ORGANIZATION ( #285, #193 ) ;
#27 = ORIENTED_EDGE ( 'NONE', *, *, #199, .T. ) ;
#28 = MANIFOLD_SOLID_BREP ( 'Zaoblit1', #89 ) ;
#29 = CALENDAR_DATE ( 2022, 7, 7 ) ;
#30 = APPLICATION_PROTOCOL_DEFINITION ( 'international standard', 'config_control_design', 1994, #183 ) ;
#31 = DATE_AND_TIME ( #131, #180 ) ;
#32 = EDGE_CURVE ( 'NONE', #102, #88, #192, .T. ) ;
#33 = VERTEX_POINT ( 'NONE', #205 ) ;
#34 = CARTESIAN_POINT ( 'NONE',  ( 3.000000000000000444, 3.673940397442060361E-16, 5.200000000000009948 ) ) ;
#35 = CIRCLE ( 'NONE', #252, 6.000000000000000888 ) ;
#36 = ORIENTED_EDGE ( 'NONE', *, *, #32, .F. ) ;
#37 = EDGE_LOOP ( 'NONE', ( #160, #75, #83, #155 ) ) ;
#38 = CC_DESIGN_APPROVAL ( #283, ( #176 ) ) ;
#39 = VECTOR ( 'NONE', #96, 1000.000000000000000 ) ;
#40 = ORIENTED_EDGE ( 'NONE', *, *, #298, .F. ) ;
#41 = UNCERTAINTY_MEASURE_WITH_UNIT (LENGTH_MEASURE( 1.000000000000000082E-05 ), #67, 'distance_accuracy_value', 'NONE');
#42 = DIRECTION ( 'NONE',  ( 0.000000000000000000, 0.000000000000000000, 1.000000000000000000 ) ) ;
#43 = EDGE_CURVE ( 'NONE', #294, #15, #206, .T. ) ;
#44 = FACE_OUTER_BOUND ( 'NONE', #159, .T. ) ;
#45 =( NAMED_UNIT ( * ) PLANE_ANGLE_UNIT ( ) SI_UNIT ( $, .RADIAN. ) );
#46 = DIRECTION ( 'NONE',  ( -1.000000000000000000, 0.000000000000000000, 0.000000000000000000 ) ) ;
#47 = ADVANCED_FACE ( 'NONE', ( #302 ), #19, .T. ) ;
#48 = CARTESIAN_POINT ( 'NONE',  ( 0.000000000000000000, 0.000000000000000000, 0.000000000000000000 ) ) ;
#49 = CARTESIAN_POINT ( 'NONE',  ( 0.000000000000000000, 0.000000000000000000, 0.000000000000000000 ) ) ;
#50 = PERSON_AND_ORGANIZATION ( #285, #193 ) ;
#51 = APPROVAL_STATUS ( 'not_yet_approved' ) ;
#52 = VERTEX_POINT ( 'NONE', #34 ) ;
#53 = COORDINATED_UNIVERSAL_TIME_OFFSET ( 1, 0, .AHEAD. ) ;
#54 =( GEOMETRIC_REPRESENTATION_CONTEXT ( 3 ) GLOBAL_UNCERTAINTY_ASSIGNED_CONTEXT ( ( #41 ) ) GLOBAL_UNIT_ASSIGNED_CONTEXT ( ( #67, #45, #13 ) ) REPRESENTATION_CONTEXT ( 'NONE', 'WORKASPACE' ) );
#55 = EDGE_CURVE ( 'NONE', #33, #246, #263, .T. ) ;
#56 = DATE_AND_TIME ( #126, #116 ) ;
#57 = VERTEX_POINT ( 'NONE', #108 ) ;
#58 = DIRECTION ( 'NONE',  ( 0.000000000000000000, -1.000000000000000000, 0.000000000000000000 ) ) ;
#59 = CARTESIAN_POINT ( 'NONE',  ( 0.000000000000000000, 0.000000000000000000, 5.200000000000009948 ) ) ;
#60 = AXIS2_PLACEMENT_3D ( 'NONE', #157, #17, #109 ) ;
#61 = CIRCLE ( 'NONE', #92, 6.000000000000000888 ) ;
#62 = DIRECTION ( 'NONE',  ( 0.000000000000000000, 0.000000000000000000, -1.000000000000000000 ) ) ;
#63 = DIRECTION ( 'NONE',  ( -0.000000000000000000, -0.000000000000000000, -1.000000000000000000 ) ) ;
#64 = ORIENTED_EDGE ( 'NONE', *, *, #216, .T. ) ;
#65 = EDGE_CURVE ( 'NONE', #294, #163, #167, .T. ) ;
#66 = DIRECTION ( 'NONE',  ( 1.224646799147353207E-16, 1.000000000000000000, -0.000000000000000000 ) ) ;
#67 =( LENGTH_UNIT ( ) NAMED_UNIT ( * ) SI_UNIT ( .MILLI., .METRE. ) );
#68 = CYLINDRICAL_SURFACE ( 'NONE', #140, 3.000000000000000444 ) ;
#69 = EDGE_CURVE ( 'NONE', #88, #102, #293, .T. ) ;
#70 = CARTESIAN_POINT ( 'NONE',  ( 0.000000000000000000, 0.000000000000000000, 5.200000000000009948 ) ) ;
#71 = CC_DESIGN_PERSON_AND_ORGANIZATION_ASSIGNMENT ( #50, #222, ( #103 ) ) ;
#73 = AXIS2_PLACEMENT_3D ( 'NONE', #113, #190, #265 ) ;
#72 = SECURITY_CLASSIFICATION_LEVEL ( 'unclassified' ) ;
#74 = ORIENTED_EDGE ( 'NONE', *, *, #298, .T. ) ;
#75 = ORIENTED_EDGE ( 'NONE', *, *, #65, .F. ) ;
#76 = PERSON_AND_ORGANIZATION_ROLE ( 'classification_officer' ) ;
#77 = EDGE_LOOP ( 'NONE', ( #226, #27, #64, #80 ) ) ;
#78 = APPROVAL_PERSON_ORGANIZATION ( #245, #283, #196 ) ;
#79 = VECTOR ( 'NONE', #170, 1000.000000000000000 ) ;
#80 = ORIENTED_EDGE ( 'NONE', *, *, #43, .F. ) ;
#81 = DIRECTION ( 'NONE',  ( 1.000000000000000000, 0.000000000000000000, 0.000000000000000000 ) ) ;
#82 = CC_DESIGN_DATE_AND_TIME_ASSIGNMENT ( #31, #128, ( #176 ) ) ;
#83 = ORIENTED_EDGE ( 'NONE', *, *, #43, .T. ) ;
#84 = ORIENTED_EDGE ( 'NONE', *, *, #156, .T. ) ;
#85 = ORIENTED_EDGE ( 'NONE', *, *, #169, .F. ) ;
#86 = EDGE_CURVE ( 'NONE', #33, #52, #209, .T. ) ;
#87 = DESIGN_CONTEXT ( 'detailed design', #177, 'design' ) ;
#88 = VERTEX_POINT ( 'NONE', #301 ) ;
#89 = CLOSED_SHELL ( 'NONE', ( #118, #234, #47, #207, #195, #249, #166, #98, #111 ) ) ;
#90 = CIRCLE ( 'NONE', #244, 3.000000000000000444 ) ;
#91 = AXIS2_PLACEMENT_3D ( 'NONE', #49, #200, #275 ) ;
#92 = AXIS2_PLACEMENT_3D ( 'NONE', #278, #264, #215 ) ;
#93 = CYLINDRICAL_SURFACE ( 'NONE', #188, 3.000000000000000444 ) ;
#94 = CARTESIAN_POINT ( 'NONE',  ( 0.000000000000000000, 0.000000000000000000, 5.200000000000009948 ) ) ;
#95 = DIRECTION ( 'NONE',  ( -1.000000000000000000, 1.224646799147353207E-16, 0.000000000000000000 ) ) ;
#96 = DIRECTION ( 'NONE',  ( -0.000000000000000000, -0.000000000000000000, -1.000000000000000000 ) ) ;
#97 = CARTESIAN_POINT ( 'NONE',  ( 0.000000000000000000, 0.000000000000000000, 5.000000000000000000 ) ) ;
#98 = ADVANCED_FACE ( 'NONE', ( #251 ), #256, .T. ) ;
#99 = ORIENTED_EDGE ( 'NONE', *, *, #69, .F. ) ;
#100 = TOROIDAL_SURFACE ( 'NONE', #144, 3.200000000000000622, 0.2000000000000000111 ) ;
#101 = COORDINATED_UNIVERSAL_TIME_OFFSET ( 1, 0, .AHEAD. ) ;
#102 = VERTEX_POINT ( 'NONE', #304 ) ;
#103 = PRODUCT ( '2bfc', '2bfc', '', ( #150 ) ) ;
#104 = PERSON_AND_ORGANIZATION ( #285, #193 ) ;
#105 = ORIENTED_EDGE ( 'NONE', *, *, #277, .F. ) ;
#106 = DIRECTION ( 'NONE',  ( -0.000000000000000000, -0.000000000000000000, -1.000000000000000000 ) ) ;
#107 = EDGE_CURVE ( 'NONE', #52, #102, #257, .T. ) ;
#108 = CARTESIAN_POINT ( 'NONE',  ( 6.000000000000000888, 7.347880794884120722E-16, 0.000000000000000000 ) ) ;
#109 = DIRECTION ( 'NONE',  ( 1.000000000000000000, 0.000000000000000000, 0.000000000000000000 ) ) ;
#110 = CARTESIAN_POINT ( 'NONE',  ( 0.000000000000000000, 0.000000000000000000, 255.0000000000000000 ) ) ;
#111 = ADVANCED_FACE ( 'NONE', ( #135 ), #100, .F. ) ;
#112 = DIRECTION ( 'NONE',  ( 0.000000000000000000, 0.000000000000000000, 1.000000000000000000 ) ) ;
#113 = CARTESIAN_POINT ( 'NONE',  ( 0.000000000000000000, 0.000000000000000000, 5.000000000000000000 ) ) ;
#114 = AXIS2_PLACEMENT_3D ( 'NONE', #303, #106, #284 ) ;
#115 = AXIS2_PLACEMENT_3D ( 'NONE', #70, #262, #194 ) ;
#116 = LOCAL_TIME ( 14, 42, 4.000000000000000000, #174 ) ;
#117 = DIRECTION ( 'NONE',  ( 1.000000000000000000, 0.000000000000000000, 0.000000000000000000 ) ) ;
#118 = ADVANCED_FACE ( 'NONE', ( #187 ), #279, .F. ) ;
#119 = LINE ( 'NONE', #214, #39 ) ;
#120 = CARTESIAN_POINT ( 'NONE',  ( -6.000000000000000888, 0.000000000000000000, 5.000000000000000000 ) ) ;
#121 = AXIS2_PLACEMENT_3D ( 'NONE', #259, #58, #62 ) ;
#122 = APPROVAL_PERSON_ORGANIZATION ( #104, #162, #153 ) ;
#123 = DIRECTION ( 'NONE',  ( 1.000000000000000000, 0.000000000000000000, 0.000000000000000000 ) ) ;
#124 = APPROVAL_ROLE ( '' ) ;
#125 = ORIENTED_EDGE ( 'NONE', *, *, #86, .T. ) ;
#126 = CALENDAR_DATE ( 2022, 7, 7 ) ;
#128 = DATE_TIME_ROLE ( 'creation_date' ) ;
#127 = SECURITY_CLASSIFICATION ( '', '', #72 ) ;
#129 = ORIENTED_EDGE ( 'NONE', *, *, #107, .T. ) ;
#130 = PRODUCT_DEFINITION_SHAPE ( 'NONE', 'NONE',  #176 ) ;
#131 = CALENDAR_DATE ( 2022, 7, 7 ) ;
#132 = DATE_AND_TIME ( #29, #274 ) ;
#133 = AXIS2_PLACEMENT_3D ( 'NONE', #136, #253, #185 ) ;
#134 = AXIS2_PLACEMENT_3D ( 'NONE', #97, #307, #2 ) ;
#135 = FACE_OUTER_BOUND ( 'NONE', #299, .T. ) ;
#136 = CARTESIAN_POINT ( 'NONE',  ( 0.000000000000000000, 0.000000000000000000, 5.000000000000000000 ) ) ;
#137 = DIRECTION ( 'NONE',  ( 0.000000000000000000, 0.000000000000000000, 1.000000000000000000 ) ) ;
#138 = DIRECTION ( 'NONE',  ( 1.000000000000000000, 0.000000000000000000, -0.000000000000000000 ) ) ;
#139 = LOCAL_TIME ( 14, 42, 4.000000000000000000, #171 ) ;
#140 = AXIS2_PLACEMENT_3D ( 'NONE', #239, #168, #266 ) ;
#141 = EDGE_LOOP ( 'NONE', ( #208, #9 ) ) ;
#142 = DIRECTION ( 'NONE',  ( 0.000000000000000000, 0.000000000000000000, 1.000000000000000000 ) ) ;
#143 = CARTESIAN_POINT ( 'NONE',  ( -3.200000000000000622, 3.918869757271530953E-16, 5.200000000000009948 ) ) ;
#144 = AXIS2_PLACEMENT_3D ( 'NONE', #210, #306, #81 ) ;
#145 = EDGE_CURVE ( 'NONE', #163, #294, #61, .T. ) ;
#146 = FACE_OUTER_BOUND ( 'NONE', #37, .T. ) ;
#147 = CARTESIAN_POINT ( 'NONE',  ( 0.000000000000000000, 0.000000000000000000, 0.000000000000000000 ) ) ;
#148 = EDGE_CURVE ( 'NONE', #52, #296, #90, .T. ) ;
#149 = DIRECTION ( 'NONE',  ( 1.000000000000000000, 0.000000000000000000, 0.000000000000000000 ) ) ;
#150 = MECHANICAL_CONTEXT ( 'NONE', #183, 'mechanical' ) ;
#151 = CIRCLE ( 'NONE', #269, 3.000000000000000444 ) ;
#152 = ORIENTED_EDGE ( 'NONE', *, *, #305, .F. ) ;
#153 = APPROVAL_ROLE ( '' ) ;
#154 = EDGE_LOOP ( 'NONE', ( #84, #250 ) ) ;
#155 = ORIENTED_EDGE ( 'NONE', *, *, #305, .T. ) ;
#156 = EDGE_CURVE ( 'NONE', #246, #33, #151, .T. ) ;
#157 = CARTESIAN_POINT ( 'NONE',  ( 0.000000000000000000, 0.000000000000000000, 5.000000000000000000 ) ) ;
#158 = AXIS2_PLACEMENT_3D ( 'NONE', #110, #255, #20 ) ;
#159 = EDGE_LOOP ( 'NONE', ( #276, #173, #74, #233 ) ) ;
#160 = ORIENTED_EDGE ( 'NONE', *, *, #199, .F. ) ;
#161 = CARTESIAN_POINT ( 'NONE',  ( -6.000000000000000888, 0.000000000000000000, 0.000000000000000000 ) ) ;
#162 = APPROVAL ( #51, 'NEURÈENÝ' ) ;
#163 = VERTEX_POINT ( 'NONE', #21 ) ;
#164 = PLANE ( 'NONE',  #134 ) ;
#165 = DIRECTION ( 'NONE',  ( 0.000000000000000000, 0.000000000000000000, 1.000000000000000000 ) ) ;
#166 = ADVANCED_FACE ( 'NONE', ( #44 ), #68, .T. ) ;
#167 = CIRCLE ( 'NONE', #178, 6.000000000000000888 ) ;
#168 = DIRECTION ( 'NONE',  ( -0.000000000000000000, -0.000000000000000000, -1.000000000000000000 ) ) ;
#169 = EDGE_CURVE ( 'NONE', #296, #88, #268, .T. ) ;
#170 = DIRECTION ( 'NONE',  ( -0.000000000000000000, -0.000000000000000000, -1.000000000000000000 ) ) ;
#171 = COORDINATED_UNIVERSAL_TIME_OFFSET ( 1, 0, .AHEAD. ) ;
#172 = PERSON_AND_ORGANIZATION ( #285, #193 ) ;
#173 = ORIENTED_EDGE ( 'NONE', *, *, #156, .F. ) ;
#174 = COORDINATED_UNIVERSAL_TIME_OFFSET ( 1, 0, .AHEAD. ) ;
#175 = ORIENTED_EDGE ( 'NONE', *, *, #32, .T. ) ;
#176 = PRODUCT_DEFINITION ( 'NEZNÁMÝ', '', #231, #87 ) ;
#177 = APPLICATION_CONTEXT ( 'configuration controlled 3d designs of mechanical parts and assemblies' ) ;
#178 = AXIS2_PLACEMENT_3D ( 'NONE', #186, #137, #282 ) ;
#180 = LOCAL_TIME ( 14, 42, 4.000000000000000000, #53 ) ;
#179 = DATE_AND_TIME ( #223, #243 ) ;
#181 = EDGE_LOOP ( 'NONE', ( #105, #271, #36, #221 ) ) ;
#182 = CC_DESIGN_PERSON_AND_ORGANIZATION_ASSIGNMENT ( #7, #272, ( #231 ) ) ;
#183 = APPLICATION_CONTEXT ( 'configuration controlled 3d designs of mechanical parts and assemblies' ) ;
#184 = CARTESIAN_POINT ( 'NONE',  ( 3.000000000000000444, 3.673940397442060361E-16, 255.0000000000000000 ) ) ;
#185 = DIRECTION ( 'NONE',  ( -1.000000000000000000, 0.000000000000000000, 0.000000000000000000 ) ) ;
#186 = CARTESIAN_POINT ( 'NONE',  ( 0.000000000000000000, 0.000000000000000000, 5.000000000000000000 ) ) ;
#187 = FACE_OUTER_BOUND ( 'NONE', #181, .T. ) ;
#188 = AXIS2_PLACEMENT_3D ( 'NONE', #289, #25, #46 ) ;
#189 = DIRECTION ( 'NONE',  ( 1.000000000000000000, 0.000000000000000000, 0.000000000000000000 ) ) ;
#190 = DIRECTION ( 'NONE',  ( -0.000000000000000000, -0.000000000000000000, -1.000000000000000000 ) ) ;
#191 = DIRECTION ( 'NONE',  ( 1.000000000000000000, 0.000000000000000000, 0.000000000000000000 ) ) ;
#192 = CIRCLE ( 'NONE', #114, 3.200000000000000622 ) ;
#193 = ORGANIZATION ( 'NEURÈENÝ', 'NEURÈENÝ', '' ) ;
#194 = DIRECTION ( 'NONE',  ( 1.000000000000000000, 0.000000000000000000, 0.000000000000000000 ) ) ;
#195 = ADVANCED_FACE ( 'NONE', ( #23, #5 ), #164, .T. ) ;
#196 = APPROVAL_ROLE ( '' ) ;
#197 = APPLICATION_PROTOCOL_DEFINITION ( 'international standard', 'config_control_design', 1994, #177 ) ;
#198 = EDGE_LOOP ( 'NONE', ( #175, #201 ) ) ;
#199 = EDGE_CURVE ( 'NONE', #163, #57, #119, .T. ) ;
#200 = DIRECTION ( 'NONE',  ( 0.000000000000000000, 0.000000000000000000, 1.000000000000000000 ) ) ;
#201 = ORIENTED_EDGE ( 'NONE', *, *, #69, .T. ) ;
#202 = SHAPE_DEFINITION_REPRESENTATION ( #130, #241 ) ;
#203 = PERSON_AND_ORGANIZATION ( #285, #193 ) ;
#204 = CC_DESIGN_APPROVAL ( #162, ( #127 ) ) ;
#205 = CARTESIAN_POINT ( 'NONE',  ( 3.000000000000000444, 3.673940397442060361E-16, 255.0000000000000000 ) ) ;
#206 = LINE ( 'NONE', #16, #248 ) ;
#207 = ADVANCED_FACE ( 'NONE', ( #146 ), #242, .T. ) ;
#208 = ORIENTED_EDGE ( 'NONE', *, *, #65, .T. ) ;
#209 = LINE ( 'NONE', #184, #236 ) ;
#210 = CARTESIAN_POINT ( 'NONE',  ( 0.000000000000000000, 0.000000000000000000, 5.200000000000009948 ) ) ;
#211 = CARTESIAN_POINT ( 'NONE',  ( -3.000000000000000444, 0.000000000000000000, 5.200000000000009948 ) ) ;
#212 = AXIS2_PLACEMENT_3D ( 'NONE', #147, #286, #24 ) ;
#213 = LINE ( 'NONE', #290, #79 ) ;
#214 = CARTESIAN_POINT ( 'NONE',  ( 6.000000000000000888, 7.347880794884120722E-16, 5.000000000000000000 ) ) ;
#215 = DIRECTION ( 'NONE',  ( 1.000000000000000000, 0.000000000000000000, 0.000000000000000000 ) ) ;
#216 = EDGE_CURVE ( 'NONE', #57, #15, #35, .T. ) ;
#217 = APPROVAL_PERSON_ORGANIZATION ( #203, #229, #124 ) ;
#218 = CALENDAR_DATE ( 2022, 7, 7 ) ;
#219 = EDGE_LOOP ( 'NONE', ( #227, #125, #273, #40 ) ) ;
#220 = CC_DESIGN_PERSON_AND_ORGANIZATION_ASSIGNMENT ( #10, #297, ( #231 ) ) ;
#221 = ORIENTED_EDGE ( 'NONE', *, *, #107, .F. ) ;
#222 = PERSON_AND_ORGANIZATION_ROLE ( 'design_owner' ) ;
#223 = CALENDAR_DATE ( 2022, 7, 7 ) ;
#224 = CC_DESIGN_DATE_AND_TIME_ASSIGNMENT ( #270, #12, ( #127 ) ) ;
#225 = APPROVAL_STATUS ( 'not_yet_approved' ) ;
#226 = ORIENTED_EDGE ( 'NONE', *, *, #145, .F. ) ;
#227 = ORIENTED_EDGE ( 'NONE', *, *, #55, .F. ) ;
#228 = EDGE_LOOP ( 'NONE', ( #152, #230 ) ) ;
#229 = APPROVAL ( #225, 'NEURÈENÝ' ) ;
#230 = ORIENTED_EDGE ( 'NONE', *, *, #216, .F. ) ;
#231 = PRODUCT_DEFINITION_FORMATION_WITH_SPECIFIED_SOURCE ( 'LIBOVOLNÝ', '', #103, .NOT_KNOWN. ) ;
#232 = DIRECTION ( 'NONE',  ( -0.000000000000000000, -0.000000000000000000, -1.000000000000000000 ) ) ;
#233 = ORIENTED_EDGE ( 'NONE', *, *, #277, .T. ) ;
#234 = ADVANCED_FACE ( 'NONE', ( #3 ), #93, .T. ) ;
#235 = DIRECTION ( 'NONE',  ( 0.000000000000000000, 0.000000000000000000, 1.000000000000000000 ) ) ;
#236 = VECTOR ( 'NONE', #63, 1000.000000000000000 ) ;
#237 = CARTESIAN_POINT ( 'NONE',  ( 0.000000000000000000, 0.000000000000000000, 0.000000000000000000 ) ) ;
#238 = AXIS2_PLACEMENT_3D ( 'NONE', #143, #66, #95 ) ;
#239 = CARTESIAN_POINT ( 'NONE',  ( 0.000000000000000000, 0.000000000000000000, 255.0000000000000000 ) ) ;
#240 = FACE_OUTER_BOUND ( 'NONE', #228, .T. ) ;
#241 = ADVANCED_BREP_SHAPE_REPRESENTATION ( '2bfc', ( #28, #91 ), #54 ) ;
#242 = CYLINDRICAL_SURFACE ( 'NONE', #73, 6.000000000000000888 ) ;
#243 = LOCAL_TIME ( 14, 42, 4.000000000000000000, #101 ) ;
#244 = AXIS2_PLACEMENT_3D ( 'NONE', #94, #42, #149 ) ;
#245 = PERSON_AND_ORGANIZATION ( #285, #193 ) ;
#246 = VERTEX_POINT ( 'NONE', #261 ) ;
#247 = APPROVAL_STATUS ( 'not_yet_approved' ) ;
#248 = VECTOR ( 'NONE', #232, 1000.000000000000000 ) ;
#249 = ADVANCED_FACE ( 'NONE', ( #240 ), #287, .F. ) ;
#250 = ORIENTED_EDGE ( 'NONE', *, *, #55, .T. ) ;
#251 = FACE_OUTER_BOUND ( 'NONE', #154, .T. ) ;
#252 = AXIS2_PLACEMENT_3D ( 'NONE', #237, #165, #191 ) ;
#253 = DIRECTION ( 'NONE',  ( -0.000000000000000000, -0.000000000000000000, -1.000000000000000000 ) ) ;
#254 = CC_DESIGN_PERSON_AND_ORGANIZATION_ASSIGNMENT ( #172, #76, ( #127 ) ) ;
#255 = DIRECTION ( 'NONE',  ( 0.000000000000000000, 0.000000000000000000, 1.000000000000000000 ) ) ;
#256 = PLANE ( 'NONE',  #288 ) ;
#257 = CIRCLE ( 'NONE', #121, 0.1999999999999996503 ) ;
#258 = AXIS2_PLACEMENT_3D ( 'NONE', #48, #1, #123 ) ;
#259 = CARTESIAN_POINT ( 'NONE',  ( 3.200000000000000622, 0.000000000000000000, 5.200000000000009948 ) ) ;
#260 = CIRCLE ( 'NONE', #258, 6.000000000000000888 ) ;
#261 = CARTESIAN_POINT ( 'NONE',  ( -3.000000000000000444, 0.000000000000000000, 255.0000000000000000 ) ) ;
#262 = DIRECTION ( 'NONE',  ( 0.000000000000000000, 0.000000000000000000, 1.000000000000000000 ) ) ;
#263 = CIRCLE ( 'NONE', #158, 3.000000000000000444 ) ;
#264 = DIRECTION ( 'NONE',  ( 0.000000000000000000, 0.000000000000000000, 1.000000000000000000 ) ) ;
#265 = DIRECTION ( 'NONE',  ( -1.000000000000000000, 0.000000000000000000, 0.000000000000000000 ) ) ;
#266 = DIRECTION ( 'NONE',  ( -1.000000000000000000, 0.000000000000000000, 0.000000000000000000 ) ) ;
#267 = APPROVAL_DATE_TIME ( #132, #283 ) ;
#268 = CIRCLE ( 'NONE', #238, 0.2000000000000000944 ) ;
#269 = AXIS2_PLACEMENT_3D ( 'NONE', #22, #142, #189 ) ;
#270 = DATE_AND_TIME ( #218, #139 ) ;
#271 = ORIENTED_EDGE ( 'NONE', *, *, #169, .T. ) ;
#272 = PERSON_AND_ORGANIZATION_ROLE ( 'design_supplier' ) ;
#273 = ORIENTED_EDGE ( 'NONE', *, *, #148, .T. ) ;
#274 = LOCAL_TIME ( 14, 42, 4.000000000000000000, #6 ) ;
#275 = DIRECTION ( 'NONE',  ( 1.000000000000000000, 0.000000000000000000, 0.000000000000000000 ) ) ;
#276 = ORIENTED_EDGE ( 'NONE', *, *, #86, .F. ) ;
#277 = EDGE_CURVE ( 'NONE', #296, #52, #14, .T. ) ;
#278 = CARTESIAN_POINT ( 'NONE',  ( 0.000000000000000000, 0.000000000000000000, 5.000000000000000000 ) ) ;
#279 = TOROIDAL_SURFACE ( 'NONE', #8, 3.200000000000000622, 0.2000000000000000111 ) ;
#280 = CC_DESIGN_SECURITY_CLASSIFICATION ( #127, ( #231 ) ) ;
#281 = CARTESIAN_POINT ( 'NONE',  ( 0.000000000000000000, 0.000000000000000000, 255.0000000000000000 ) ) ;
#282 = DIRECTION ( 'NONE',  ( 1.000000000000000000, 0.000000000000000000, 0.000000000000000000 ) ) ;
#283 = APPROVAL ( #247, 'NEURÈENÝ' ) ;
#284 = DIRECTION ( 'NONE',  ( 1.000000000000000000, 0.000000000000000000, 0.000000000000000000 ) ) ;
#285 = PERSON ( 'NEURÈENÝ', 'NEURÈENÝ', 'NEURÈENÝ', ('NEURÈENÝ'), ('NEURÈENÝ'), ('NEURÈENÝ') ) ;
#286 = DIRECTION ( 'NONE',  ( 0.000000000000000000, 0.000000000000000000, 1.000000000000000000 ) ) ;
#287 = PLANE ( 'NONE',  #212 ) ;
#288 = AXIS2_PLACEMENT_3D ( 'NONE', #281, #112, #138 ) ;
#289 = CARTESIAN_POINT ( 'NONE',  ( 0.000000000000000000, 0.000000000000000000, 255.0000000000000000 ) ) ;
#290 = CARTESIAN_POINT ( 'NONE',  ( -3.000000000000000444, 0.000000000000000000, 255.0000000000000000 ) ) ;
#291 = APPROVAL_DATE_TIME ( #179, #229 ) ;
#292 = PERSON_AND_ORGANIZATION_ROLE ( 'creator' ) ;
#293 = CIRCLE ( 'NONE', #60, 3.200000000000000622 ) ;
#294 = VERTEX_POINT ( 'NONE', #120 ) ;
#295 = APPROVAL_DATE_TIME ( #56, #162 ) ;
#296 = VERTEX_POINT ( 'NONE', #211 ) ;
#297 = PERSON_AND_ORGANIZATION_ROLE ( 'creator' ) ;
#298 = EDGE_CURVE ( 'NONE', #246, #296, #213, .T. ) ;
#299 = EDGE_LOOP ( 'NONE', ( #85, #11, #129, #99 ) ) ;
#300 = CC_DESIGN_PERSON_AND_ORGANIZATION_ASSIGNMENT ( #26, #292, ( #176 ) ) ;
#301 = CARTESIAN_POINT ( 'NONE',  ( -3.200000000000000622, 3.918869757271530953E-16, 5.000000000000005329 ) ) ;
#302 = FACE_OUTER_BOUND ( 'NONE', #77, .T. ) ;
#303 = CARTESIAN_POINT ( 'NONE',  ( 0.000000000000000000, 0.000000000000000000, 5.000000000000000000 ) ) ;
#304 = CARTESIAN_POINT ( 'NONE',  ( 3.200000000000000622, 0.000000000000000000, 5.000000000000005329 ) ) ;
#305 = EDGE_CURVE ( 'NONE', #15, #57, #260, .T. ) ;
#306 = DIRECTION ( 'NONE',  ( 0.000000000000000000, 0.000000000000000000, 1.000000000000000000 ) ) ;
#307 = DIRECTION ( 'NONE',  ( 0.000000000000000000, 0.000000000000000000, 1.000000000000000000 ) ) ;
ENDSEC;
END-ISO-10303-21;
