ISO-10303-21;
HEADER;
FILE_DESCRIPTION (( 'STEP AP203' ),
    '1' );
FILE_NAME ('c41a.STEP',
    '2022-07-07T12:19:28',
    ( '' ),
    ( '' ),
    'SwSTEP 2.0',
    'SolidWorks 2019',
    '' );
FILE_SCHEMA (( 'CONFIG_CONTROL_DESIGN' ));
ENDSEC;

DATA;
#1 = DIRECTION ( 'NONE',  ( -0.000000000000000000, -0.000000000000000000, -1.000000000000000000 ) ) ;
#2 = FACE_OUTER_BOUND ( 'NONE', #218, .T. ) ;
#3 = DIRECTION ( 'NONE',  ( -0.000000000000000000, -0.000000000000000000, -1.000000000000000000 ) ) ;
#4 = CARTESIAN_POINT ( 'NONE',  ( 0.000000000000000000, 0.000000000000000000, 7.000000000000000000 ) ) ;
#5 = CARTESIAN_POINT ( 'NONE',  ( -9.000000000000000000, 0.000000000000000000, 207.0000000000000284 ) ) ;
#6 = ORIENTED_EDGE ( 'NONE', *, *, #186, .F. ) ;
#7 = AXIS2_PLACEMENT_3D ( 'NONE', #217, #3, #289 ) ;
#8 = DIRECTION ( 'NONE',  ( 0.000000000000000000, 0.000000000000000000, 1.000000000000000000 ) ) ;
#9 = LINE ( 'NONE', #99, #74 ) ;
#10 = EDGE_CURVE ( 'NONE', #176, #77, #147, .T. ) ;
#11 = ORIENTED_EDGE ( 'NONE', *, *, #174, .F. ) ;
#12 = AXIS2_PLACEMENT_3D ( 'NONE', #212, #119, #30 ) ;
#13 = ORIENTED_EDGE ( 'NONE', *, *, #115, .F. ) ;
#14 = EDGE_CURVE ( 'NONE', #58, #297, #285, .T. ) ;
#15 = ORIENTED_EDGE ( 'NONE', *, *, #252, .F. ) ;
#16 = APPROVAL_ROLE ( '' ) ;
#17 = DATE_AND_TIME ( #111, #140 ) ;
#18 = VECTOR ( 'NONE', #208, 1000.000000000000000 ) ;
#19 = PERSON_AND_ORGANIZATION ( #247, #22 ) ;
#20 = APPLICATION_PROTOCOL_DEFINITION ( 'international standard', 'config_control_design', 1994, #37 ) ;
#21 = DIRECTION ( 'NONE',  ( 1.000000000000000000, 0.000000000000000000, 0.000000000000000000 ) ) ;
#22 = ORGANIZATION ( 'NEURÈENÝ', 'NEURÈENÝ', '' ) ;
#23 =( NAMED_UNIT ( * ) SI_UNIT ( $, .STERADIAN. ) SOLID_ANGLE_UNIT ( ) );
#24 = LINE ( 'NONE', #113, #260 ) ;
#25 = PRODUCT ( 'c41a', 'c41a', '', ( #84 ) ) ;
#26 = DIRECTION ( 'NONE',  ( 1.000000000000000000, 0.000000000000000000, 0.000000000000000000 ) ) ;
#27 = PLANE ( 'NONE',  #206 ) ;
#28 = AXIS2_PLACEMENT_3D ( 'NONE', #241, #295, #125 ) ;
#29 = DIRECTION ( 'NONE',  ( 0.000000000000000000, 0.000000000000000000, 1.000000000000000000 ) ) ;
#30 = DIRECTION ( 'NONE',  ( 1.000000000000000000, 0.000000000000000000, 0.000000000000000000 ) ) ;
#31 = CC_DESIGN_PERSON_AND_ORGANIZATION_ASSIGNMENT ( #228, #302, ( #270 ) ) ;
#32 = ORIENTED_EDGE ( 'NONE', *, *, #14, .T. ) ;
#33 = ORIENTED_EDGE ( 'NONE', *, *, #148, .F. ) ;
#34 = CLOSED_SHELL ( 'NONE', ( #105, #276, #35, #240, #198, #257, #143, #89, #152 ) ) ;
#35 = ADVANCED_FACE ( 'NONE', ( #294 ), #268, .T. ) ;
#36 = CARTESIAN_POINT ( 'NONE',  ( 12.00000000000000178, 1.469576158976824144E-15, 7.000000000000000000 ) ) ;
#37 = APPLICATION_CONTEXT ( 'configuration controlled 3d designs of mechanical parts and assemblies' ) ;
#38 = ORIENTED_EDGE ( 'NONE', *, *, #286, .T. ) ;
#39 = CIRCLE ( 'NONE', #12, 9.000000000000000000 ) ;
#40 = VERTEX_POINT ( 'NONE', #123 ) ;
#41 = ORIENTED_EDGE ( 'NONE', *, *, #186, .T. ) ;
#42 = PERSON_AND_ORGANIZATION_ROLE ( 'creator' ) ;
#43 = LOCAL_TIME ( 14, 19, 28.00000000000000000, #205 ) ;
#44 = PRODUCT_DEFINITION ( 'NEZNÁMÝ', '', #270, #101 ) ;
#45 = DIRECTION ( 'NONE',  ( 0.000000000000000000, 0.000000000000000000, 1.000000000000000000 ) ) ;
#46 = AXIS2_PLACEMENT_3D ( 'NONE', #262, #138, #26 ) ;
#47 = CARTESIAN_POINT ( 'NONE',  ( -12.00000000000000178, 0.000000000000000000, 0.000000000000000000 ) ) ;
#48 = CYLINDRICAL_SURFACE ( 'NONE', #7, 9.000000000000000000 ) ;
#49 = CARTESIAN_POINT ( 'NONE',  ( 0.000000000000000000, 0.000000000000000000, 7.000000000000000000 ) ) ;
#50 = DIRECTION ( 'NONE',  ( 0.000000000000000000, 0.000000000000000000, 1.000000000000000000 ) ) ;
#51 = DIRECTION ( 'NONE',  ( 1.000000000000000000, 0.000000000000000000, 0.000000000000000000 ) ) ;
#52 = CIRCLE ( 'NONE', #127, 12.00000000000000178 ) ;
#53 = DIRECTION ( 'NONE',  ( 1.000000000000000000, 0.000000000000000000, 0.000000000000000000 ) ) ;
#54 = DIRECTION ( 'NONE',  ( 0.000000000000000000, 0.000000000000000000, 1.000000000000000000 ) ) ;
#55 = EDGE_CURVE ( 'NONE', #203, #250, #52, .T. ) ;
#56 = CARTESIAN_POINT ( 'NONE',  ( 0.000000000000000000, 0.000000000000000000, 7.200000000000011724 ) ) ;
#57 = ORIENTED_EDGE ( 'NONE', *, *, #227, .T. ) ;
#58 = VERTEX_POINT ( 'NONE', #71 ) ;
#59 = MANIFOLD_SOLID_BREP ( 'Zaoblit1', #34 ) ;
#60 = ORIENTED_EDGE ( 'NONE', *, *, #62, .F. ) ;
#61 = CARTESIAN_POINT ( 'NONE',  ( 9.000000000000000000, 1.102182119232617714E-15, 7.200000000000011724 ) ) ;
#62 = EDGE_CURVE ( 'NONE', #126, #128, #299, .T. ) ;
#63 = PERSON_AND_ORGANIZATION_ROLE ( 'classification_officer' ) ;
#64 = AXIS2_PLACEMENT_3D ( 'NONE', #49, #238, #235 ) ;
#65 = CIRCLE ( 'NONE', #296, 9.000000000000000000 ) ;
#66 = DATE_AND_TIME ( #209, #293 ) ;
#67 = COORDINATED_UNIVERSAL_TIME_OFFSET ( 1, 0, .AHEAD. ) ;
#68 = AXIS2_PLACEMENT_3D ( 'NONE', #168, #244, #118 ) ;
#69 = DIRECTION ( 'NONE',  ( 0.000000000000000000, 0.000000000000000000, 1.000000000000000000 ) ) ;
#70 = CARTESIAN_POINT ( 'NONE',  ( 0.000000000000000000, 0.000000000000000000, 7.000000000000000000 ) ) ;
#71 = CARTESIAN_POINT ( 'NONE',  ( -9.000000000000000000, 0.000000000000000000, 7.200000000000011724 ) ) ;
#72 = FACE_OUTER_BOUND ( 'NONE', #98, .T. ) ;
#73 = CARTESIAN_POINT ( 'NONE',  ( 9.199999999999999289, 0.000000000000000000, 7.200000000000011724 ) ) ;
#74 = VECTOR ( 'NONE', #199, 1000.000000000000000 ) ;
#75 = DIRECTION ( 'NONE',  ( -1.000000000000000000, 0.000000000000000000, 0.000000000000000000 ) ) ;
#76 = APPROVAL_PERSON_ORGANIZATION ( #301, #246, #185 ) ;
#77 = VERTEX_POINT ( 'NONE', #145 ) ;
#78 = DATE_AND_TIME ( #132, #255 ) ;
#79 = SECURITY_CLASSIFICATION_LEVEL ( 'unclassified' ) ;
#80 = APPLICATION_PROTOCOL_DEFINITION ( 'international standard', 'config_control_design', 1994, #290 ) ;
#81 = TOROIDAL_SURFACE ( 'NONE', #116, 9.199999999999999289, 0.2000000000000000111 ) ;
#82 = EDGE_CURVE ( 'NONE', #297, #58, #65, .T. ) ;
#83 = APPROVAL_PERSON_ORGANIZATION ( #279, #242, #154 ) ;
#84 = MECHANICAL_CONTEXT ( 'NONE', #37, 'mechanical' ) ;
#85 = ADVANCED_BREP_SHAPE_REPRESENTATION ( 'c41a', ( #59, #189 ), #151 ) ;
#86 = PLANE ( 'NONE',  #177 ) ;
#87 = LOCAL_TIME ( 14, 19, 28.00000000000000000, #281 ) ;
#88 = DIRECTION ( 'NONE',  ( 1.000000000000000000, 0.000000000000000000, -0.000000000000000000 ) ) ;
#89 = ADVANCED_FACE ( 'NONE', ( #197 ), #214, .T. ) ;
#90 = EDGE_LOOP ( 'NONE', ( #41, #204 ) ) ;
#91 = CARTESIAN_POINT ( 'NONE',  ( 12.00000000000000178, 1.469576158976824144E-15, 0.000000000000000000 ) ) ;
#92 = ORIENTED_EDGE ( 'NONE', *, *, #307, .F. ) ;
#93 = FACE_BOUND ( 'NONE', #90, .T. ) ;
#94 = CC_DESIGN_PERSON_AND_ORGANIZATION_ASSIGNMENT ( #303, #184, ( #25 ) ) ;
#95 = DIRECTION ( 'NONE',  ( 1.000000000000000000, 0.000000000000000000, 0.000000000000000000 ) ) ;
#96 = TOROIDAL_SURFACE ( 'NONE', #124, 9.199999999999999289, 0.2000000000000000111 ) ;
#97 = CC_DESIGN_PERSON_AND_ORGANIZATION_ASSIGNMENT ( #19, #182, ( #44 ) ) ;
#98 = EDGE_LOOP ( 'NONE', ( #129, #273, #173, #239 ) ) ;
#99 = CARTESIAN_POINT ( 'NONE',  ( 12.00000000000000178, 1.469576158976824144E-15, 7.000000000000000000 ) ) ;
#100 = ORIENTED_EDGE ( 'NONE', *, *, #120, .F. ) ;
#101 = DESIGN_CONTEXT ( 'detailed design', #290, 'design' ) ;
#102 = AXIS2_PLACEMENT_3D ( 'NONE', #142, #292, #51 ) ;
#103 = CC_DESIGN_SECURITY_CLASSIFICATION ( #249, ( #270 ) ) ;
#104 = EDGE_LOOP ( 'NONE', ( #100, #277, #178, #33 ) ) ;
#105 = ADVANCED_FACE ( 'NONE', ( #193 ), #96, .F. ) ;
#106 = EDGE_LOOP ( 'NONE', ( #60, #149, #38, #92 ) ) ;
#107 =( LENGTH_UNIT ( ) NAMED_UNIT ( * ) SI_UNIT ( .MILLI., .METRE. ) );
#108 = CIRCLE ( 'NONE', #210, 12.00000000000000178 ) ;
#109 = LINE ( 'NONE', #254, #18 ) ;
#110 = COORDINATED_UNIVERSAL_TIME_OFFSET ( 1, 0, .AHEAD. ) ;
#111 = CALENDAR_DATE ( 2022, 7, 7 ) ;
#112 = APPROVAL_STATUS ( 'not_yet_approved' ) ;
#113 = CARTESIAN_POINT ( 'NONE',  ( -9.000000000000000000, 0.000000000000000000, 207.0000000000000284 ) ) ;
#114 = CARTESIAN_POINT ( 'NONE',  ( 9.000000000000000000, 1.102182119232617714E-15, 207.0000000000000284 ) ) ;
#115 = EDGE_CURVE ( 'NONE', #297, #40, #164, .T. ) ;
#116 = AXIS2_PLACEMENT_3D ( 'NONE', #137, #117, #188 ) ;
#117 = DIRECTION ( 'NONE',  ( 0.000000000000000000, 0.000000000000000000, 1.000000000000000000 ) ) ;
#118 = DIRECTION ( 'NONE',  ( -1.000000000000000000, 1.224646799147353207E-16, 0.000000000000000000 ) ) ;
#119 = DIRECTION ( 'NONE',  ( 0.000000000000000000, 0.000000000000000000, 1.000000000000000000 ) ) ;
#120 = EDGE_CURVE ( 'NONE', #58, #264, #229, .T. ) ;
#121 = DIRECTION ( 'NONE',  ( 0.000000000000000000, 0.000000000000000000, -1.000000000000000000 ) ) ;
#122 = CC_DESIGN_PERSON_AND_ORGANIZATION_ASSIGNMENT ( #180, #63, ( #249 ) ) ;
#123 = CARTESIAN_POINT ( 'NONE',  ( 9.199999999999999289, 0.000000000000000000, 7.000000000000006217 ) ) ;
#124 = AXIS2_PLACEMENT_3D ( 'NONE', #56, #291, #146 ) ;
#125 = DIRECTION ( 'NONE',  ( 1.000000000000000000, 0.000000000000000000, -0.000000000000000000 ) ) ;
#126 = VERTEX_POINT ( 'NONE', #36 ) ;
#127 = AXIS2_PLACEMENT_3D ( 'NONE', #170, #8, #169 ) ;
#128 = VERTEX_POINT ( 'NONE', #222 ) ;
#129 = ORIENTED_EDGE ( 'NONE', *, *, #136, .F. ) ;
#130 = DATE_AND_TIME ( #259, #43 ) ;
#131 = AXIS2_PLACEMENT_3D ( 'NONE', #73, #237, #121 ) ;
#132 = CALENDAR_DATE ( 2022, 7, 7 ) ;
#133 = PERSON_AND_ORGANIZATION ( #247, #22 ) ;
#134 = AXIS2_PLACEMENT_3D ( 'NONE', #269, #29, #166 ) ;
#135 = CARTESIAN_POINT ( 'NONE',  ( 0.000000000000000000, 0.000000000000000000, 7.000000000000000000 ) ) ;
#136 = EDGE_CURVE ( 'NONE', #126, #250, #9, .T. ) ;
#137 = CARTESIAN_POINT ( 'NONE',  ( 0.000000000000000000, 0.000000000000000000, 7.200000000000011724 ) ) ;
#138 = DIRECTION ( 'NONE',  ( -0.000000000000000000, -0.000000000000000000, -1.000000000000000000 ) ) ;
#139 = VECTOR ( 'NONE', #194, 1000.000000000000000 ) ;
#140 = LOCAL_TIME ( 14, 19, 28.00000000000000000, #181 ) ;
#141 = DIRECTION ( 'NONE',  ( 0.000000000000000000, 0.000000000000000000, 1.000000000000000000 ) ) ;
#142 = CARTESIAN_POINT ( 'NONE',  ( 0.000000000000000000, 0.000000000000000000, 7.000000000000000000 ) ) ;
#143 = ADVANCED_FACE ( 'NONE', ( #2 ), #48, .T. ) ;
#144 = DIRECTION ( 'NONE',  ( -0.000000000000000000, -0.000000000000000000, -1.000000000000000000 ) ) ;
#145 = CARTESIAN_POINT ( 'NONE',  ( 9.000000000000000000, 1.102182119232617714E-15, 207.0000000000000284 ) ) ;
#146 = DIRECTION ( 'NONE',  ( 1.000000000000000000, 0.000000000000000000, 0.000000000000000000 ) ) ;
#147 = CIRCLE ( 'NONE', #266, 9.000000000000000000 ) ;
#148 = EDGE_CURVE ( 'NONE', #264, #40, #304, .T. ) ;
#149 = ORIENTED_EDGE ( 'NONE', *, *, #136, .T. ) ;
#150 = ORIENTED_EDGE ( 'NONE', *, *, #55, .F. ) ;
#151 =( GEOMETRIC_REPRESENTATION_CONTEXT ( 3 ) GLOBAL_UNCERTAINTY_ASSIGNED_CONTEXT ( ( #224 ) ) GLOBAL_UNIT_ASSIGNED_CONTEXT ( ( #107, #231, #23 ) ) REPRESENTATION_CONTEXT ( 'NONE', 'WORKASPACE' ) );
#152 = ADVANCED_FACE ( 'NONE', ( #165 ), #81, .F. ) ;
#153 = ORIENTED_EDGE ( 'NONE', *, *, #82, .T. ) ;
#154 = APPROVAL_ROLE ( '' ) ;
#155 = ORIENTED_EDGE ( 'NONE', *, *, #10, .F. ) ;
#156 = DIRECTION ( 'NONE',  ( 0.000000000000000000, 0.000000000000000000, 1.000000000000000000 ) ) ;
#157 = DIRECTION ( 'NONE',  ( 1.000000000000000000, 0.000000000000000000, 0.000000000000000000 ) ) ;
#158 = APPROVAL_STATUS ( 'not_yet_approved' ) ;
#159 = CC_DESIGN_APPROVAL ( #242, ( #249 ) ) ;
#160 = CC_DESIGN_DATE_AND_TIME_ASSIGNMENT ( #161, #256, ( #44 ) ) ;
#161 = DATE_AND_TIME ( #282, #87 ) ;
#162 = APPROVAL_STATUS ( 'not_yet_approved' ) ;
#163 = EDGE_CURVE ( 'NONE', #128, #126, #280, .T. ) ;
#164 = CIRCLE ( 'NONE', #131, 0.1999999999999996503 ) ;
#165 = FACE_OUTER_BOUND ( 'NONE', #104, .T. ) ;
#166 = DIRECTION ( 'NONE',  ( 1.000000000000000000, 0.000000000000000000, 0.000000000000000000 ) ) ;
#167 = DIRECTION ( 'NONE',  ( 1.000000000000000000, 0.000000000000000000, -0.000000000000000000 ) ) ;
#168 = CARTESIAN_POINT ( 'NONE',  ( -9.199999999999999289, 1.126675055215564822E-15, 7.200000000000011724 ) ) ;
#169 = DIRECTION ( 'NONE',  ( 1.000000000000000000, 0.000000000000000000, 0.000000000000000000 ) ) ;
#170 = CARTESIAN_POINT ( 'NONE',  ( 0.000000000000000000, 0.000000000000000000, 0.000000000000000000 ) ) ;
#171 = CIRCLE ( 'NONE', #46, 9.199999999999999289 ) ;
#172 = ORIENTED_EDGE ( 'NONE', *, *, #227, .F. ) ;
#173 = ORIENTED_EDGE ( 'NONE', *, *, #307, .T. ) ;
#174 = EDGE_CURVE ( 'NONE', #77, #297, #263, .T. ) ;
#175 = ORIENTED_EDGE ( 'NONE', *, *, #120, .T. ) ;
#176 = VERTEX_POINT ( 'NONE', #5 ) ;
#177 = AXIS2_PLACEMENT_3D ( 'NONE', #284, #69, #88 ) ;
#178 = ORIENTED_EDGE ( 'NONE', *, *, #115, .T. ) ;
#179 = APPROVAL_DATE_TIME ( #78, #246 ) ;
#180 = PERSON_AND_ORGANIZATION ( #247, #22 ) ;
#181 = COORDINATED_UNIVERSAL_TIME_OFFSET ( 1, 0, .AHEAD. ) ;
#182 = PERSON_AND_ORGANIZATION_ROLE ( 'creator' ) ;
#183 = DATE_TIME_ROLE ( 'classification_date' ) ;
#184 = PERSON_AND_ORGANIZATION_ROLE ( 'design_owner' ) ;
#185 = APPROVAL_ROLE ( '' ) ;
#186 = EDGE_CURVE ( 'NONE', #40, #264, #171, .T. ) ;
#187 = CC_DESIGN_DATE_AND_TIME_ASSIGNMENT ( #66, #183, ( #249 ) ) ;
#188 = DIRECTION ( 'NONE',  ( 1.000000000000000000, 0.000000000000000000, 0.000000000000000000 ) ) ;
#189 = AXIS2_PLACEMENT_3D ( 'NONE', #230, #156, #21 ) ;
#190 = FACE_OUTER_BOUND ( 'NONE', #272, .T. ) ;
#191 = CARTESIAN_POINT ( 'NONE',  ( 0.000000000000000000, 0.000000000000000000, 7.200000000000011724 ) ) ;
#192 = DIRECTION ( 'NONE',  ( 0.000000000000000000, 0.000000000000000000, 1.000000000000000000 ) ) ;
#193 = FACE_OUTER_BOUND ( 'NONE', #275, .T. ) ;
#194 = DIRECTION ( 'NONE',  ( -0.000000000000000000, -0.000000000000000000, -1.000000000000000000 ) ) ;
#195 = APPROVAL_PERSON_ORGANIZATION ( #133, #220, #16 ) ;
#196 = ORIENTED_EDGE ( 'NONE', *, *, #252, .T. ) ;
#197 = FACE_OUTER_BOUND ( 'NONE', #221, .T. ) ;
#198 = ADVANCED_FACE ( 'NONE', ( #93, #236 ), #27, .T. ) ;
#199 = DIRECTION ( 'NONE',  ( -0.000000000000000000, -0.000000000000000000, -1.000000000000000000 ) ) ;
#200 = CC_DESIGN_APPROVAL ( #246, ( #270 ) ) ;
#201 = ORIENTED_EDGE ( 'NONE', *, *, #174, .T. ) ;
#202 = ORIENTED_EDGE ( 'NONE', *, *, #163, .T. ) ;
#203 = VERTEX_POINT ( 'NONE', #47 ) ;
#204 = ORIENTED_EDGE ( 'NONE', *, *, #148, .T. ) ;
#205 = COORDINATED_UNIVERSAL_TIME_OFFSET ( 1, 0, .AHEAD. ) ;
#206 = AXIS2_PLACEMENT_3D ( 'NONE', #70, #192, #167 ) ;
#207 = CARTESIAN_POINT ( 'NONE',  ( 0.000000000000000000, 0.000000000000000000, 207.0000000000000284 ) ) ;
#208 = DIRECTION ( 'NONE',  ( -0.000000000000000000, -0.000000000000000000, -1.000000000000000000 ) ) ;
#209 = CALENDAR_DATE ( 2022, 7, 7 ) ;
#210 = AXIS2_PLACEMENT_3D ( 'NONE', #283, #45, #157 ) ;
#211 = DIRECTION ( 'NONE',  ( -1.000000000000000000, 0.000000000000000000, 0.000000000000000000 ) ) ;
#212 = CARTESIAN_POINT ( 'NONE',  ( 0.000000000000000000, 0.000000000000000000, 207.0000000000000284 ) ) ;
#213 = CC_DESIGN_APPROVAL ( #220, ( #44 ) ) ;
#214 = PLANE ( 'NONE',  #28 ) ;
#215 = CYLINDRICAL_SURFACE ( 'NONE', #232, 12.00000000000000178 ) ;
#216 = CARTESIAN_POINT ( 'NONE',  ( 0.000000000000000000, 0.000000000000000000, 7.200000000000011724 ) ) ;
#217 = CARTESIAN_POINT ( 'NONE',  ( 0.000000000000000000, 0.000000000000000000, 207.0000000000000284 ) ) ;
#218 = EDGE_LOOP ( 'NONE', ( #11, #155, #196, #32 ) ) ;
#219 = AXIS2_PLACEMENT_3D ( 'NONE', #4, #144, #75 ) ;
#220 = APPROVAL ( #162, 'NEURÈENÝ' ) ;
#221 = EDGE_LOOP ( 'NONE', ( #245, #57 ) ) ;
#222 = CARTESIAN_POINT ( 'NONE',  ( -12.00000000000000178, 0.000000000000000000, 7.000000000000000000 ) ) ;
#223 = EDGE_LOOP ( 'NONE', ( #202, #271 ) ) ;
#224 = UNCERTAINTY_MEASURE_WITH_UNIT (LENGTH_MEASURE( 1.000000000000000082E-05 ), #107, 'distance_accuracy_value', 'NONE');
#225 = ORIENTED_EDGE ( 'NONE', *, *, #286, .F. ) ;
#226 = APPROVAL_DATE_TIME ( #17, #242 ) ;
#227 = EDGE_CURVE ( 'NONE', #77, #176, #39, .T. ) ;
#228 = PERSON_AND_ORGANIZATION ( #247, #22 ) ;
#229 = CIRCLE ( 'NONE', #68, 0.2000000000000005107 ) ;
#230 = CARTESIAN_POINT ( 'NONE',  ( 0.000000000000000000, 0.000000000000000000, 0.000000000000000000 ) ) ;
#231 =( NAMED_UNIT ( * ) PLANE_ANGLE_UNIT ( ) SI_UNIT ( $, .RADIAN. ) );
#232 = AXIS2_PLACEMENT_3D ( 'NONE', #135, #234, #211 ) ;
#233 = PRODUCT_RELATED_PRODUCT_CATEGORY ( 'detail', '', ( #25 ) ) ;
#234 = DIRECTION ( 'NONE',  ( -0.000000000000000000, -0.000000000000000000, -1.000000000000000000 ) ) ;
#235 = DIRECTION ( 'NONE',  ( 1.000000000000000000, 0.000000000000000000, 0.000000000000000000 ) ) ;
#236 = FACE_OUTER_BOUND ( 'NONE', #223, .T. ) ;
#237 = DIRECTION ( 'NONE',  ( 0.000000000000000000, -1.000000000000000000, 0.000000000000000000 ) ) ;
#238 = DIRECTION ( 'NONE',  ( 0.000000000000000000, 0.000000000000000000, 1.000000000000000000 ) ) ;
#239 = ORIENTED_EDGE ( 'NONE', *, *, #55, .T. ) ;
#240 = ADVANCED_FACE ( 'NONE', ( #72 ), #215, .T. ) ;
#241 = CARTESIAN_POINT ( 'NONE',  ( 0.000000000000000000, 0.000000000000000000, 207.0000000000000284 ) ) ;
#242 = APPROVAL ( #158, 'NEURÈENÝ' ) ;
#243 = AXIS2_PLACEMENT_3D ( 'NONE', #207, #305, #253 ) ;
#244 = DIRECTION ( 'NONE',  ( 1.224646799147353207E-16, 1.000000000000000000, -0.000000000000000000 ) ) ;
#245 = ORIENTED_EDGE ( 'NONE', *, *, #10, .T. ) ;
#246 = APPROVAL ( #112, 'NEURÈENÝ' ) ;
#247 = PERSON ( 'NEURÈENÝ', 'NEURÈENÝ', 'NEURÈENÝ', ('NEURÈENÝ'), ('NEURÈENÝ'), ('NEURÈENÝ') ) ;
#248 = EDGE_LOOP ( 'NONE', ( #150, #225 ) ) ;
#249 = SECURITY_CLASSIFICATION ( '', '', #79 ) ;
#250 = VERTEX_POINT ( 'NONE', #91 ) ;
#251 = SHAPE_DEFINITION_REPRESENTATION ( #261, #85 ) ;
#252 = EDGE_CURVE ( 'NONE', #176, #58, #24, .T. ) ;
#253 = DIRECTION ( 'NONE',  ( -1.000000000000000000, 0.000000000000000000, 0.000000000000000000 ) ) ;
#254 = CARTESIAN_POINT ( 'NONE',  ( -12.00000000000000178, 0.000000000000000000, 7.000000000000000000 ) ) ;
#255 = LOCAL_TIME ( 14, 19, 28.00000000000000000, #67 ) ;
#256 = DATE_TIME_ROLE ( 'creation_date' ) ;
#257 = ADVANCED_FACE ( 'NONE', ( #306 ), #86, .F. ) ;
#258 = APPROVAL_DATE_TIME ( #130, #220 ) ;
#259 = CALENDAR_DATE ( 2022, 7, 7 ) ;
#260 = VECTOR ( 'NONE', #1, 1000.000000000000000 ) ;
#261 = PRODUCT_DEFINITION_SHAPE ( 'NONE', 'NONE',  #44 ) ;
#262 = CARTESIAN_POINT ( 'NONE',  ( 0.000000000000000000, 0.000000000000000000, 7.000000000000000000 ) ) ;
#263 = LINE ( 'NONE', #114, #139 ) ;
#264 = VERTEX_POINT ( 'NONE', #265 ) ;
#265 = CARTESIAN_POINT ( 'NONE',  ( -9.199999999999999289, 1.126675055215564822E-15, 7.000000000000006217 ) ) ;
#266 = AXIS2_PLACEMENT_3D ( 'NONE', #288, #54, #53 ) ;
#267 = DIRECTION ( 'NONE',  ( 1.000000000000000000, 0.000000000000000000, 0.000000000000000000 ) ) ;
#268 = CYLINDRICAL_SURFACE ( 'NONE', #219, 12.00000000000000178 ) ;
#269 = CARTESIAN_POINT ( 'NONE',  ( 0.000000000000000000, 0.000000000000000000, 7.000000000000000000 ) ) ;
#270 = PRODUCT_DEFINITION_FORMATION_WITH_SPECIFIED_SOURCE ( 'LIBOVOLNÝ', '', #25, .NOT_KNOWN. ) ;
#271 = ORIENTED_EDGE ( 'NONE', *, *, #62, .T. ) ;
#272 = EDGE_LOOP ( 'NONE', ( #172, #201, #153, #15 ) ) ;
#273 = ORIENTED_EDGE ( 'NONE', *, *, #163, .F. ) ;
#274 = AXIS2_PLACEMENT_3D ( 'NONE', #216, #50, #95 ) ;
#275 = EDGE_LOOP ( 'NONE', ( #298, #175, #6, #13 ) ) ;
#276 = ADVANCED_FACE ( 'NONE', ( #190 ), #287, .T. ) ;
#277 = ORIENTED_EDGE ( 'NONE', *, *, #82, .F. ) ;
#278 = PERSON_AND_ORGANIZATION ( #247, #22 ) ;
#279 = PERSON_AND_ORGANIZATION ( #247, #22 ) ;
#280 = CIRCLE ( 'NONE', #64, 12.00000000000000178 ) ;
#281 = COORDINATED_UNIVERSAL_TIME_OFFSET ( 1, 0, .AHEAD. ) ;
#282 = CALENDAR_DATE ( 2022, 7, 7 ) ;
#283 = CARTESIAN_POINT ( 'NONE',  ( 0.000000000000000000, 0.000000000000000000, 0.000000000000000000 ) ) ;
#284 = CARTESIAN_POINT ( 'NONE',  ( 0.000000000000000000, 0.000000000000000000, 0.000000000000000000 ) ) ;
#285 = CIRCLE ( 'NONE', #274, 9.000000000000000000 ) ;
#286 = EDGE_CURVE ( 'NONE', #250, #203, #108, .T. ) ;
#287 = CYLINDRICAL_SURFACE ( 'NONE', #243, 9.000000000000000000 ) ;
#288 = CARTESIAN_POINT ( 'NONE',  ( 0.000000000000000000, 0.000000000000000000, 207.0000000000000284 ) ) ;
#289 = DIRECTION ( 'NONE',  ( -1.000000000000000000, 0.000000000000000000, 0.000000000000000000 ) ) ;
#290 = APPLICATION_CONTEXT ( 'configuration controlled 3d designs of mechanical parts and assemblies' ) ;
#291 = DIRECTION ( 'NONE',  ( 0.000000000000000000, 0.000000000000000000, 1.000000000000000000 ) ) ;
#292 = DIRECTION ( 'NONE',  ( -0.000000000000000000, -0.000000000000000000, -1.000000000000000000 ) ) ;
#293 = LOCAL_TIME ( 14, 19, 28.00000000000000000, #110 ) ;
#294 = FACE_OUTER_BOUND ( 'NONE', #106, .T. ) ;
#295 = DIRECTION ( 'NONE',  ( 0.000000000000000000, 0.000000000000000000, 1.000000000000000000 ) ) ;
#296 = AXIS2_PLACEMENT_3D ( 'NONE', #191, #141, #267 ) ;
#297 = VERTEX_POINT ( 'NONE', #61 ) ;
#298 = ORIENTED_EDGE ( 'NONE', *, *, #14, .F. ) ;
#299 = CIRCLE ( 'NONE', #134, 12.00000000000000178 ) ;
#300 = CC_DESIGN_PERSON_AND_ORGANIZATION_ASSIGNMENT ( #278, #42, ( #270 ) ) ;
#301 = PERSON_AND_ORGANIZATION ( #247, #22 ) ;
#302 = PERSON_AND_ORGANIZATION_ROLE ( 'design_supplier' ) ;
#303 = PERSON_AND_ORGANIZATION ( #247, #22 ) ;
#304 = CIRCLE ( 'NONE', #102, 9.199999999999999289 ) ;
#305 = DIRECTION ( 'NONE',  ( -0.000000000000000000, -0.000000000000000000, -1.000000000000000000 ) ) ;
#306 = FACE_OUTER_BOUND ( 'NONE', #248, .T. ) ;
#307 = EDGE_CURVE ( 'NONE', #128, #203, #109, .T. ) ;
ENDSEC;
END-ISO-10303-21;
