ISO-10303-21;
HEADER;
FILE_DESCRIPTION (( 'STEP AP203' ),
    '1' );
FILE_NAME ('b4d6.STEP',
    '2022-07-07T12:21:49',
    ( '' ),
    ( '' ),
    'SwSTEP 2.0',
    'SolidWorks 2019',
    '' );
FILE_SCHEMA (( 'CONFIG_CONTROL_DESIGN' ));
ENDSEC;

DATA;
#1 = EDGE_CURVE ( 'NONE', #227, #184, #286, .T. ) ;
#2 = PLANE ( 'NONE',  #242 ) ;
#3 = CARTESIAN_POINT ( 'NONE',  ( 0.000000000000000000, 0.000000000000000000, 7.199999999999984190 ) ) ;
#4 = AXIS2_PLACEMENT_3D ( 'NONE', #30, #256, #162 ) ;
#5 = APPROVAL_PERSON_ORGANIZATION ( #301, #244, #233 ) ;
#6 = DIRECTION ( 'NONE',  ( -1.000000000000000000, 1.224646799147358384E-16, 0.000000000000000000 ) ) ;
#7 = ADVANCED_BREP_SHAPE_REPRESENTATION ( 'b4d6', ( #109, #73 ), #302 ) ;
#8 = COORDINATED_UNIVERSAL_TIME_OFFSET ( 1, 0, .AHEAD. ) ;
#9 = CARTESIAN_POINT ( 'NONE',  ( 11.00000000000000000, 1.347111479062088405E-15, 7.000000000000000000 ) ) ;
#10 = EDGE_CURVE ( 'NONE', #39, #141, #110, .T. ) ;
#11 = ORIENTED_EDGE ( 'NONE', *, *, #10, .F. ) ;
#12 = LINE ( 'NONE', #296, #164 ) ;
#13 = VERTEX_POINT ( 'NONE', #139 ) ;
#14 = DIRECTION ( 'NONE',  ( -0.000000000000000000, -0.000000000000000000, -1.000000000000000000 ) ) ;
#15 = AXIS2_PLACEMENT_3D ( 'NONE', #29, #115, #257 ) ;
#16 = CARTESIAN_POINT ( 'NONE',  ( 0.000000000000000000, 0.000000000000000000, 7.199999999999984190 ) ) ;
#17 = VECTOR ( 'NONE', #172, 1000.000000000000000 ) ;
#18 = EDGE_LOOP ( 'NONE', ( #249, #197 ) ) ;
#19 = APPROVAL_DATE_TIME ( #206, #244 ) ;
#20 = CC_DESIGN_PERSON_AND_ORGANIZATION_ASSIGNMENT ( #98, #284, ( #288 ) ) ;
#21 = CARTESIAN_POINT ( 'NONE',  ( -7.000000000000000000, 0.000000000000000000, 407.0000000000000000 ) ) ;
#22 = CIRCLE ( 'NONE', #65, 7.000000000000000000 ) ;
#23 = LOCAL_TIME ( 14, 21, 49.00000000000000000, #142 ) ;
#24 = CALENDAR_DATE ( 2022, 7, 7 ) ;
#25 = ORIENTED_EDGE ( 'NONE', *, *, #47, .F. ) ;
#26 = PERSON_AND_ORGANIZATION_ROLE ( 'classification_officer' ) ;
#27 = ORIENTED_EDGE ( 'NONE', *, *, #270, .T. ) ;
#28 = SECURITY_CLASSIFICATION_LEVEL ( 'unclassified' ) ;
#29 = CARTESIAN_POINT ( 'NONE',  ( 0.000000000000000000, 0.000000000000000000, 7.199999999999984190 ) ) ;
#30 = CARTESIAN_POINT ( 'NONE',  ( 0.000000000000000000, 0.000000000000000000, 0.000000000000000000 ) ) ;
#31 = FACE_OUTER_BOUND ( 'NONE', #231, .T. ) ;
#32 = CARTESIAN_POINT ( 'NONE',  ( 0.000000000000000000, 0.000000000000000000, 407.0000000000000000 ) ) ;
#33 = CIRCLE ( 'NONE', #177, 11.00000000000000000 ) ;
#34 = DIRECTION ( 'NONE',  ( -0.000000000000000000, -0.000000000000000000, -1.000000000000000000 ) ) ;
#35 = DIRECTION ( 'NONE',  ( -0.000000000000000000, -0.000000000000000000, -1.000000000000000000 ) ) ;
#36 = ADVANCED_FACE ( 'NONE', ( #281 ), #255, .T. ) ;
#37 = CIRCLE ( 'NONE', #203, 7.200000000000000178 ) ;
#38 = ORIENTED_EDGE ( 'NONE', *, *, #1, .F. ) ;
#39 = VERTEX_POINT ( 'NONE', #163 ) ;
#40 = AXIS2_PLACEMENT_3D ( 'NONE', #229, #71, #144 ) ;
#41 = PRODUCT_DEFINITION_SHAPE ( 'NONE', 'NONE',  #265 ) ;
#42 = COORDINATED_UNIVERSAL_TIME_OFFSET ( 1, 0, .AHEAD. ) ;
#43 = DIRECTION ( 'NONE',  ( -0.000000000000000000, -0.000000000000000000, -1.000000000000000000 ) ) ;
#44 = CARTESIAN_POINT ( 'NONE',  ( 0.000000000000000000, 0.000000000000000000, 7.000000000000000000 ) ) ;
#45 = CARTESIAN_POINT ( 'NONE',  ( 0.000000000000000000, 0.000000000000000000, 0.000000000000000000 ) ) ;
#46 = FACE_OUTER_BOUND ( 'NONE', #75, .T. ) ;
#47 = EDGE_CURVE ( 'NONE', #13, #184, #199, .T. ) ;
#48 = CARTESIAN_POINT ( 'NONE',  ( 0.000000000000000000, 0.000000000000000000, 7.000000000000000000 ) ) ;
#49 = VECTOR ( 'NONE', #94, 1000.000000000000000 ) ;
#50 = CARTESIAN_POINT ( 'NONE',  ( 7.000000000000000000, 8.572527594031473190E-16, 407.0000000000000000 ) ) ;
#51 = PERSON_AND_ORGANIZATION ( #222, #230 ) ;
#52 = EDGE_CURVE ( 'NONE', #227, #136, #22, .T. ) ;
#53 = DIRECTION ( 'NONE',  ( 1.224646799147353207E-16, 1.000000000000000000, -0.000000000000000000 ) ) ;
#54 = CARTESIAN_POINT ( 'NONE',  ( 0.000000000000000000, 0.000000000000000000, 7.199999999999984190 ) ) ;
#55 = AXIS2_PLACEMENT_3D ( 'NONE', #3, #213, #291 ) ;
#56 = DESIGN_CONTEXT ( 'detailed design', #238, 'design' ) ;
#57 = EDGE_CURVE ( 'NONE', #180, #251, #72, .T. ) ;
#58 = CARTESIAN_POINT ( 'NONE',  ( 0.000000000000000000, 0.000000000000000000, 7.000000000000000000 ) ) ;
#59 = ORIENTED_EDGE ( 'NONE', *, *, #276, .T. ) ;
#60 = ADVANCED_FACE ( 'NONE', ( #46 ), #279, .F. ) ;
#61 = EDGE_LOOP ( 'NONE', ( #200, #27, #225, #117 ) ) ;
#62 = LINE ( 'NONE', #9, #129 ) ;
#63 = PERSON_AND_ORGANIZATION ( #222, #230 ) ;
#64 = EDGE_LOOP ( 'NONE', ( #90, #25, #274, #189 ) ) ;
#65 = AXIS2_PLACEMENT_3D ( 'NONE', #204, #303, #183 ) ;
#66 = PERSON_AND_ORGANIZATION ( #222, #230 ) ;
#67 = ORIENTED_EDGE ( 'NONE', *, *, #87, .T. ) ;
#68 = ADVANCED_FACE ( 'NONE', ( #188 ), #123, .T. ) ;
#69 = APPROVAL_STATUS ( 'not_yet_approved' ) ;
#70 = EDGE_LOOP ( 'NONE', ( #101, #175, #159, #207 ) ) ;
#71 = DIRECTION ( 'NONE',  ( -0.000000000000000000, -0.000000000000000000, -1.000000000000000000 ) ) ;
#72 = CIRCLE ( 'NONE', #105, 11.00000000000000000 ) ;
#73 = AXIS2_PLACEMENT_3D ( 'NONE', #235, #258, #95 ) ;
#74 = ADVANCED_FACE ( 'NONE', ( #185, #212 ), #2, .T. ) ;
#75 = EDGE_LOOP ( 'NONE', ( #134, #261 ) ) ;
#76 = CARTESIAN_POINT ( 'NONE',  ( 0.000000000000000000, 0.000000000000000000, 7.000000000000000000 ) ) ;
#77 = PERSON_AND_ORGANIZATION_ROLE ( 'design_owner' ) ;
#78 = CYLINDRICAL_SURFACE ( 'NONE', #282, 7.000000000000000000 ) ;
#79 = CIRCLE ( 'NONE', #140, 0.1999999999999996503 ) ;
#80 = FACE_OUTER_BOUND ( 'NONE', #18, .T. ) ;
#81 = DIRECTION ( 'NONE',  ( -0.000000000000000000, -0.000000000000000000, -1.000000000000000000 ) ) ;
#82 = DIRECTION ( 'NONE',  ( 0.000000000000000000, 0.000000000000000000, 1.000000000000000000 ) ) ;
#83 = CC_DESIGN_DATE_AND_TIME_ASSIGNMENT ( #160, #137, ( #273 ) ) ;
#84 = DIRECTION ( 'NONE',  ( 0.000000000000000000, 0.000000000000000000, 1.000000000000000000 ) ) ;
#85 = ORIENTED_EDGE ( 'NONE', *, *, #47, .T. ) ;
#86 = CARTESIAN_POINT ( 'NONE',  ( 7.200000000000000178, 0.000000000000000000, 7.199999999999984190 ) ) ;
#87 = EDGE_CURVE ( 'NONE', #251, #180, #145, .T. ) ;
#88 = AXIS2_PLACEMENT_3D ( 'NONE', #215, #107, #193 ) ;
#89 = EDGE_LOOP ( 'NONE', ( #178, #96, #11, #232 ) ) ;
#90 = ORIENTED_EDGE ( 'NONE', *, *, #131, .F. ) ;
#91 = PERSON_AND_ORGANIZATION ( #222, #230 ) ;
#92 = CC_DESIGN_SECURITY_CLASSIFICATION ( #273, ( #288 ) ) ;
#93 = SHAPE_DEFINITION_REPRESENTATION ( #41, #7 ) ;
#94 = DIRECTION ( 'NONE',  ( -0.000000000000000000, -0.000000000000000000, -1.000000000000000000 ) ) ;
#95 = DIRECTION ( 'NONE',  ( 1.000000000000000000, 0.000000000000000000, 0.000000000000000000 ) ) ;
#96 = ORIENTED_EDGE ( 'NONE', *, *, #131, .T. ) ;
#97 = EDGE_CURVE ( 'NONE', #237, #285, #33, .T. ) ;
#98 = PERSON_AND_ORGANIZATION ( #222, #230 ) ;
#99 = DIRECTION ( 'NONE',  ( -1.000000000000000000, 0.000000000000000000, 0.000000000000000000 ) ) ;
#100 = AXIS2_PLACEMENT_3D ( 'NONE', #32, #147, #146 ) ;
#101 = ORIENTED_EDGE ( 'NONE', *, *, #280, .F. ) ;
#102 = MECHANICAL_CONTEXT ( 'NONE', #262, 'mechanical' ) ;
#103 = ORIENTED_EDGE ( 'NONE', *, *, #293, .T. ) ;
#104 = DIRECTION ( 'NONE',  ( 1.000000000000000000, 0.000000000000000000, 0.000000000000000000 ) ) ;
#105 = AXIS2_PLACEMENT_3D ( 'NONE', #45, #119, #166 ) ;
#106 = CC_DESIGN_APPROVAL ( #244, ( #288 ) ) ;
#107 = DIRECTION ( 'NONE',  ( 0.000000000000000000, 0.000000000000000000, 1.000000000000000000 ) ) ;
#108 = ADVANCED_FACE ( 'NONE', ( #241 ), #78, .T. ) ;
#109 = MANIFOLD_SOLID_BREP ( 'Zaoblit1', #216 ) ;
#110 = CIRCLE ( 'NONE', #152, 7.200000000000000178 ) ;
#111 = ORIENTED_EDGE ( 'NONE', *, *, #280, .T. ) ;
#112 = APPLICATION_PROTOCOL_DEFINITION ( 'international standard', 'config_control_design', 1994, #238 ) ;
#113 = LOCAL_TIME ( 14, 21, 49.00000000000000000, #42 ) ;
#114 = ORIENTED_EDGE ( 'NONE', *, *, #253, .T. ) ;
#115 = DIRECTION ( 'NONE',  ( 0.000000000000000000, 0.000000000000000000, 1.000000000000000000 ) ) ;
#116 = LOCAL_TIME ( 14, 21, 49.00000000000000000, #8 ) ;
#117 = ORIENTED_EDGE ( 'NONE', *, *, #293, .F. ) ;
#118 = COORDINATED_UNIVERSAL_TIME_OFFSET ( 1, 0, .AHEAD. ) ;
#119 = DIRECTION ( 'NONE',  ( 0.000000000000000000, 0.000000000000000000, 1.000000000000000000 ) ) ;
#120 = CALENDAR_DATE ( 2022, 7, 7 ) ;
#121 = CARTESIAN_POINT ( 'NONE',  ( 0.000000000000000000, 0.000000000000000000, 0.000000000000000000 ) ) ;
#122 = AXIS2_PLACEMENT_3D ( 'NONE', #121, #211, #307 ) ;
#123 = CYLINDRICAL_SURFACE ( 'NONE', #128, 11.00000000000000000 ) ;
#124 = APPROVAL_DATE_TIME ( #268, #248 ) ;
#125 = CARTESIAN_POINT ( 'NONE',  ( -7.200000000000000178, 8.817456953860942303E-16, 7.199999999999984190 ) ) ;
#126 = CARTESIAN_POINT ( 'NONE',  ( 0.000000000000000000, 0.000000000000000000, 7.000000000000000000 ) ) ;
#127 = PLANE ( 'NONE',  #88 ) ;
#128 = AXIS2_PLACEMENT_3D ( 'NONE', #44, #208, #99 ) ;
#129 = VECTOR ( 'NONE', #35, 1000.000000000000000 ) ;
#130 =( LENGTH_UNIT ( ) NAMED_UNIT ( * ) SI_UNIT ( .MILLI., .METRE. ) );
#131 = EDGE_CURVE ( 'NONE', #184, #141, #236, .T. ) ;
#132 = CIRCLE ( 'NONE', #299, 11.00000000000000000 ) ;
#133 = CARTESIAN_POINT ( 'NONE',  ( -11.00000000000000000, 0.000000000000000000, 7.000000000000000000 ) ) ;
#134 = ORIENTED_EDGE ( 'NONE', *, *, #87, .F. ) ;
#135 = CARTESIAN_POINT ( 'NONE',  ( 11.00000000000000000, 1.347111479062088405E-15, 7.000000000000000000 ) ) ;
#136 = VERTEX_POINT ( 'NONE', #50 ) ;
#137 = DATE_TIME_ROLE ( 'classification_date' ) ;
#138 = DIRECTION ( 'NONE',  ( 1.000000000000000000, 0.000000000000000000, 0.000000000000000000 ) ) ;
#139 = CARTESIAN_POINT ( 'NONE',  ( 7.000000000000000000, 8.572527594031473190E-16, 7.199999999999984190 ) ) ;
#140 = AXIS2_PLACEMENT_3D ( 'NONE', #86, #267, #176 ) ;
#141 = VERTEX_POINT ( 'NONE', #269 ) ;
#142 = COORDINATED_UNIVERSAL_TIME_OFFSET ( 1, 0, .AHEAD. ) ;
#143 = DIRECTION ( 'NONE',  ( 0.000000000000000000, 0.000000000000000000, 1.000000000000000000 ) ) ;
#144 = DIRECTION ( 'NONE',  ( -1.000000000000000000, 0.000000000000000000, 0.000000000000000000 ) ) ;
#145 = CIRCLE ( 'NONE', #122, 11.00000000000000000 ) ;
#146 = DIRECTION ( 'NONE',  ( 1.000000000000000000, 0.000000000000000000, 0.000000000000000000 ) ) ;
#147 = DIRECTION ( 'NONE',  ( 0.000000000000000000, 0.000000000000000000, 1.000000000000000000 ) ) ;
#148 = CARTESIAN_POINT ( 'NONE',  ( 0.000000000000000000, 0.000000000000000000, 407.0000000000000000 ) ) ;
#149 = EDGE_CURVE ( 'NONE', #184, #13, #150, .T. ) ;
#150 = CIRCLE ( 'NONE', #55, 7.000000000000000000 ) ;
#151 = AXIS2_PLACEMENT_3D ( 'NONE', #16, #201, #198 ) ;
#152 = AXIS2_PLACEMENT_3D ( 'NONE', #48, #43, #138 ) ;
#153 = APPROVAL_PERSON_ORGANIZATION ( #91, #205, #226 ) ;
#154 = ORIENTED_EDGE ( 'NONE', *, *, #97, .T. ) ;
#155 = APPROVAL_STATUS ( 'not_yet_approved' ) ;
#156 = CC_DESIGN_DATE_AND_TIME_ASSIGNMENT ( #182, #305, ( #265 ) ) ;
#157 = TOROIDAL_SURFACE ( 'NONE', #170, 7.200000000000000178, 0.2000000000000000111 ) ;
#158 = CALENDAR_DATE ( 2022, 7, 7 ) ;
#159 = ORIENTED_EDGE ( 'NONE', *, *, #1, .T. ) ;
#160 = DATE_AND_TIME ( #120, #283 ) ;
#161 = EDGE_LOOP ( 'NONE', ( #221, #306, #103, #67 ) ) ;
#162 = DIRECTION ( 'NONE',  ( 1.000000000000000000, 0.000000000000000000, -0.000000000000000000 ) ) ;
#163 = CARTESIAN_POINT ( 'NONE',  ( 7.200000000000000178, 0.000000000000000000, 6.999999999999992006 ) ) ;
#164 = VECTOR ( 'NONE', #81, 1000.000000000000000 ) ;
#165 = CALENDAR_DATE ( 2022, 7, 7 ) ;
#166 = DIRECTION ( 'NONE',  ( 1.000000000000000000, 0.000000000000000000, 0.000000000000000000 ) ) ;
#167 = DIRECTION ( 'NONE',  ( 0.000000000000000000, 0.000000000000000000, 1.000000000000000000 ) ) ;
#168 = EDGE_CURVE ( 'NONE', #136, #227, #224, .T. ) ;
#169 = DIRECTION ( 'NONE',  ( 1.000000000000000000, 0.000000000000000000, 0.000000000000000000 ) ) ;
#170 = AXIS2_PLACEMENT_3D ( 'NONE', #54, #82, #104 ) ;
#171 = CARTESIAN_POINT ( 'NONE',  ( -7.000000000000000000, 0.000000000000000000, 7.199999999999984190 ) ) ;
#172 = DIRECTION ( 'NONE',  ( -0.000000000000000000, -0.000000000000000000, -1.000000000000000000 ) ) ;
#173 = CARTESIAN_POINT ( 'NONE',  ( 0.000000000000000000, 0.000000000000000000, 407.0000000000000000 ) ) ;
#174 = ADVANCED_FACE ( 'NONE', ( #31 ), #289, .T. ) ;
#175 = ORIENTED_EDGE ( 'NONE', *, *, #52, .F. ) ;
#176 = DIRECTION ( 'NONE',  ( 0.000000000000000000, 0.000000000000000000, -1.000000000000000000 ) ) ;
#177 = AXIS2_PLACEMENT_3D ( 'NONE', #76, #167, #169 ) ;
#178 = ORIENTED_EDGE ( 'NONE', *, *, #149, .F. ) ;
#179 = ADVANCED_FACE ( 'NONE', ( #240 ), #157, .F. ) ;
#180 = VERTEX_POINT ( 'NONE', #190 ) ;
#181 = APPLICATION_PROTOCOL_DEFINITION ( 'international standard', 'config_control_design', 1994, #262 ) ;
#182 = DATE_AND_TIME ( #165, #23 ) ;
#183 = DIRECTION ( 'NONE',  ( 1.000000000000000000, 0.000000000000000000, 0.000000000000000000 ) ) ;
#184 = VERTEX_POINT ( 'NONE', #171 ) ;
#185 = FACE_BOUND ( 'NONE', #271, .T. ) ;
#186 = LOCAL_TIME ( 14, 21, 49.00000000000000000, #254 ) ;
#187 = CC_DESIGN_PERSON_AND_ORGANIZATION_ASSIGNMENT ( #66, #26, ( #273 ) ) ;
#188 = FACE_OUTER_BOUND ( 'NONE', #161, .T. ) ;
#189 = ORIENTED_EDGE ( 'NONE', *, *, #253, .F. ) ;
#190 = CARTESIAN_POINT ( 'NONE',  ( 11.00000000000000000, 1.347111479062088405E-15, 0.000000000000000000 ) ) ;
#191 = CC_DESIGN_APPROVAL ( #205, ( #273 ) ) ;
#192 = PRODUCT_RELATED_PRODUCT_CATEGORY ( 'detail', '', ( #294 ) ) ;
#193 = DIRECTION ( 'NONE',  ( 1.000000000000000000, 0.000000000000000000, -0.000000000000000000 ) ) ;
#194 = PERSON_AND_ORGANIZATION ( #222, #230 ) ;
#195 = UNCERTAINTY_MEASURE_WITH_UNIT (LENGTH_MEASURE( 1.000000000000000082E-05 ), #130, 'distance_accuracy_value', 'NONE');
#196 =( NAMED_UNIT ( * ) PLANE_ANGLE_UNIT ( ) SI_UNIT ( $, .RADIAN. ) );
#197 = ORIENTED_EDGE ( 'NONE', *, *, #168, .T. ) ;
#198 = DIRECTION ( 'NONE',  ( 1.000000000000000000, 0.000000000000000000, 0.000000000000000000 ) ) ;
#199 = CIRCLE ( 'NONE', #15, 7.000000000000000000 ) ;
#200 = ORIENTED_EDGE ( 'NONE', *, *, #276, .F. ) ;
#201 = DIRECTION ( 'NONE',  ( 0.000000000000000000, 0.000000000000000000, 1.000000000000000000 ) ) ;
#202 = PERSON_AND_ORGANIZATION_ROLE ( 'creator' ) ;
#203 = AXIS2_PLACEMENT_3D ( 'NONE', #58, #14, #275 ) ;
#204 = CARTESIAN_POINT ( 'NONE',  ( 0.000000000000000000, 0.000000000000000000, 407.0000000000000000 ) ) ;
#205 = APPROVAL ( #69, 'NEURÈENÝ' ) ;
#206 = DATE_AND_TIME ( #158, #113 ) ;
#207 = ORIENTED_EDGE ( 'NONE', *, *, #149, .T. ) ;
#208 = DIRECTION ( 'NONE',  ( -0.000000000000000000, -0.000000000000000000, -1.000000000000000000 ) ) ;
#209 = CC_DESIGN_PERSON_AND_ORGANIZATION_ASSIGNMENT ( #194, #77, ( #294 ) ) ;
#210 = APPROVAL_DATE_TIME ( #228, #205 ) ;
#211 = DIRECTION ( 'NONE',  ( 0.000000000000000000, 0.000000000000000000, 1.000000000000000000 ) ) ;
#212 = FACE_OUTER_BOUND ( 'NONE', #278, .T. ) ;
#213 = DIRECTION ( 'NONE',  ( 0.000000000000000000, 0.000000000000000000, 1.000000000000000000 ) ) ;
#214 = CC_DESIGN_PERSON_AND_ORGANIZATION_ASSIGNMENT ( #259, #202, ( #288 ) ) ;
#215 = CARTESIAN_POINT ( 'NONE',  ( 0.000000000000000000, 0.000000000000000000, 407.0000000000000000 ) ) ;
#216 = CLOSED_SHELL ( 'NONE', ( #179, #174, #36, #68, #74, #60, #108, #220, #239 ) ) ;
#217 = TOROIDAL_SURFACE ( 'NONE', #151, 7.200000000000000178, 0.2000000000000000111 ) ;
#218 = CARTESIAN_POINT ( 'NONE',  ( -7.000000000000000000, 0.000000000000000000, 407.0000000000000000 ) ) ;
#219 =( NAMED_UNIT ( * ) SI_UNIT ( $, .STERADIAN. ) SOLID_ANGLE_UNIT ( ) );
#220 = ADVANCED_FACE ( 'NONE', ( #80 ), #127, .T. ) ;
#221 = ORIENTED_EDGE ( 'NONE', *, *, #270, .F. ) ;
#222 = PERSON ( 'NEURÈENÝ', 'NEURÈENÝ', 'NEURÈENÝ', ('NEURÈENÝ'), ('NEURÈENÝ'), ('NEURÈENÝ') ) ;
#223 = LINE ( 'NONE', #133, #17 ) ;
#224 = CIRCLE ( 'NONE', #100, 7.000000000000000000 ) ;
#225 = ORIENTED_EDGE ( 'NONE', *, *, #57, .T. ) ;
#226 = APPROVAL_ROLE ( '' ) ;
#227 = VERTEX_POINT ( 'NONE', #218 ) ;
#228 = DATE_AND_TIME ( #24, #186 ) ;
#229 = CARTESIAN_POINT ( 'NONE',  ( 0.000000000000000000, 0.000000000000000000, 7.000000000000000000 ) ) ;
#230 = ORGANIZATION ( 'NEURÈENÝ', 'NEURÈENÝ', '' ) ;
#231 = EDGE_LOOP ( 'NONE', ( #304, #111, #85, #38 ) ) ;
#232 = ORIENTED_EDGE ( 'NONE', *, *, #297, .F. ) ;
#233 = APPROVAL_ROLE ( '' ) ;
#234 = DIRECTION ( 'NONE',  ( 1.000000000000000000, 0.000000000000000000, -0.000000000000000000 ) ) ;
#235 = CARTESIAN_POINT ( 'NONE',  ( 0.000000000000000000, 0.000000000000000000, 0.000000000000000000 ) ) ;
#236 = CIRCLE ( 'NONE', #298, 0.1999999999999996503 ) ;
#237 = VERTEX_POINT ( 'NONE', #246 ) ;
#238 = APPLICATION_CONTEXT ( 'configuration controlled 3d designs of mechanical parts and assemblies' ) ;
#239 = ADVANCED_FACE ( 'NONE', ( #252 ), #217, .F. ) ;
#240 = FACE_OUTER_BOUND ( 'NONE', #89, .T. ) ;
#241 = FACE_OUTER_BOUND ( 'NONE', #70, .T. ) ;
#242 = AXIS2_PLACEMENT_3D ( 'NONE', #260, #143, #234 ) ;
#243 = CC_DESIGN_APPROVAL ( #248, ( #265 ) ) ;
#244 = APPROVAL ( #277, 'NEURÈENÝ' ) ;
#245 = CALENDAR_DATE ( 2022, 7, 7 ) ;
#246 = CARTESIAN_POINT ( 'NONE',  ( -11.00000000000000000, 0.000000000000000000, 7.000000000000000000 ) ) ;
#247 = APPROVAL_PERSON_ORGANIZATION ( #63, #248, #292 ) ;
#248 = APPROVAL ( #155, 'NEURÈENÝ' ) ;
#249 = ORIENTED_EDGE ( 'NONE', *, *, #52, .T. ) ;
#250 = PERSON_AND_ORGANIZATION_ROLE ( 'creator' ) ;
#251 = VERTEX_POINT ( 'NONE', #272 ) ;
#252 = FACE_OUTER_BOUND ( 'NONE', #64, .T. ) ;
#253 = EDGE_CURVE ( 'NONE', #141, #39, #37, .T. ) ;
#254 = COORDINATED_UNIVERSAL_TIME_OFFSET ( 1, 0, .AHEAD. ) ;
#255 = CYLINDRICAL_SURFACE ( 'NONE', #40, 11.00000000000000000 ) ;
#256 = DIRECTION ( 'NONE',  ( 0.000000000000000000, 0.000000000000000000, 1.000000000000000000 ) ) ;
#257 = DIRECTION ( 'NONE',  ( 1.000000000000000000, 0.000000000000000000, 0.000000000000000000 ) ) ;
#258 = DIRECTION ( 'NONE',  ( 0.000000000000000000, 0.000000000000000000, 1.000000000000000000 ) ) ;
#259 = PERSON_AND_ORGANIZATION ( #222, #230 ) ;
#260 = CARTESIAN_POINT ( 'NONE',  ( 0.000000000000000000, 0.000000000000000000, 7.000000000000000000 ) ) ;
#261 = ORIENTED_EDGE ( 'NONE', *, *, #57, .F. ) ;
#262 = APPLICATION_CONTEXT ( 'configuration controlled 3d designs of mechanical parts and assemblies' ) ;
#263 = AXIS2_PLACEMENT_3D ( 'NONE', #173, #34, #264 ) ;
#264 = DIRECTION ( 'NONE',  ( -1.000000000000000000, 0.000000000000000000, 0.000000000000000000 ) ) ;
#265 = PRODUCT_DEFINITION ( 'NEZNÁMÝ', '', #288, #56 ) ;
#266 = DIRECTION ( 'NONE',  ( -1.000000000000000000, 0.000000000000000000, 0.000000000000000000 ) ) ;
#267 = DIRECTION ( 'NONE',  ( 0.000000000000000000, -1.000000000000000000, 0.000000000000000000 ) ) ;
#268 = DATE_AND_TIME ( #245, #116 ) ;
#269 = CARTESIAN_POINT ( 'NONE',  ( -7.200000000000000178, 8.817456953860942303E-16, 6.999999999999992006 ) ) ;
#270 = EDGE_CURVE ( 'NONE', #285, #180, #62, .T. ) ;
#271 = EDGE_LOOP ( 'NONE', ( #295, #114 ) ) ;
#272 = CARTESIAN_POINT ( 'NONE',  ( -11.00000000000000000, 0.000000000000000000, 0.000000000000000000 ) ) ;
#273 = SECURITY_CLASSIFICATION ( '', '', #28 ) ;
#274 = ORIENTED_EDGE ( 'NONE', *, *, #297, .T. ) ;
#275 = DIRECTION ( 'NONE',  ( 1.000000000000000000, 0.000000000000000000, 0.000000000000000000 ) ) ;
#276 = EDGE_CURVE ( 'NONE', #285, #237, #132, .T. ) ;
#277 = APPROVAL_STATUS ( 'not_yet_approved' ) ;
#278 = EDGE_LOOP ( 'NONE', ( #154, #59 ) ) ;
#279 = PLANE ( 'NONE',  #4 ) ;
#280 = EDGE_CURVE ( 'NONE', #136, #13, #12, .T. ) ;
#281 = FACE_OUTER_BOUND ( 'NONE', #61, .T. ) ;
#282 = AXIS2_PLACEMENT_3D ( 'NONE', #148, #287, #266 ) ;
#283 = LOCAL_TIME ( 14, 21, 49.00000000000000000, #118 ) ;
#284 = PERSON_AND_ORGANIZATION_ROLE ( 'design_supplier' ) ;
#285 = VERTEX_POINT ( 'NONE', #135 ) ;
#286 = LINE ( 'NONE', #21, #49 ) ;
#287 = DIRECTION ( 'NONE',  ( -0.000000000000000000, -0.000000000000000000, -1.000000000000000000 ) ) ;
#288 = PRODUCT_DEFINITION_FORMATION_WITH_SPECIFIED_SOURCE ( 'LIBOVOLNÝ', '', #294, .NOT_KNOWN. ) ;
#289 = CYLINDRICAL_SURFACE ( 'NONE', #263, 7.000000000000000000 ) ;
#290 = DIRECTION ( 'NONE',  ( 1.000000000000000000, 0.000000000000000000, 0.000000000000000000 ) ) ;
#291 = DIRECTION ( 'NONE',  ( 1.000000000000000000, 0.000000000000000000, 0.000000000000000000 ) ) ;
#292 = APPROVAL_ROLE ( '' ) ;
#293 = EDGE_CURVE ( 'NONE', #237, #251, #223, .T. ) ;
#294 = PRODUCT ( 'b4d6', 'b4d6', '', ( #102 ) ) ;
#295 = ORIENTED_EDGE ( 'NONE', *, *, #10, .T. ) ;
#296 = CARTESIAN_POINT ( 'NONE',  ( 7.000000000000000000, 8.572527594031473190E-16, 407.0000000000000000 ) ) ;
#297 = EDGE_CURVE ( 'NONE', #13, #39, #79, .T. ) ;
#298 = AXIS2_PLACEMENT_3D ( 'NONE', #125, #53, #6 ) ;
#299 = AXIS2_PLACEMENT_3D ( 'NONE', #126, #84, #290 ) ;
#300 = CC_DESIGN_PERSON_AND_ORGANIZATION_ASSIGNMENT ( #51, #250, ( #265 ) ) ;
#301 = PERSON_AND_ORGANIZATION ( #222, #230 ) ;
#302 =( GEOMETRIC_REPRESENTATION_CONTEXT ( 3 ) GLOBAL_UNCERTAINTY_ASSIGNED_CONTEXT ( ( #195 ) ) GLOBAL_UNIT_ASSIGNED_CONTEXT ( ( #130, #196, #219 ) ) REPRESENTATION_CONTEXT ( 'NONE', 'WORKASPACE' ) );
#303 = DIRECTION ( 'NONE',  ( 0.000000000000000000, 0.000000000000000000, 1.000000000000000000 ) ) ;
#304 = ORIENTED_EDGE ( 'NONE', *, *, #168, .F. ) ;
#305 = DATE_TIME_ROLE ( 'creation_date' ) ;
#306 = ORIENTED_EDGE ( 'NONE', *, *, #97, .F. ) ;
#307 = DIRECTION ( 'NONE',  ( 1.000000000000000000, 0.000000000000000000, 0.000000000000000000 ) ) ;
ENDSEC;
END-ISO-10303-21;
