ISO-10303-21;
HEADER;
FILE_DESCRIPTION (( 'STEP AP203' ),
    '1' );
FILE_NAME ('9b03.STEP',
    '2022-07-07T12:58:31',
    ( '' ),
    ( '' ),
    'SwSTEP 2.0',
    'SolidWorks 2019',
    '' );
FILE_SCHEMA (( 'CONFIG_CONTROL_DESIGN' ));
ENDSEC;

DATA;
#1 = DIRECTION ( 'NONE',  ( 0.000000000000000000, 0.000000000000000000, 1.000000000000000000 ) ) ;
#2 = CIRCLE ( 'NONE', #150, 1.000000000000000000 ) ;
#3 = DIRECTION ( 'NONE',  ( 1.000000000000000000, 0.000000000000000000, 0.000000000000000000 ) ) ;
#4 = APPLICATION_CONTEXT ( 'configuration controlled 3d designs of mechanical parts and assemblies' ) ;
#5 = MECHANICAL_CONTEXT ( 'NONE', #202, 'mechanical' ) ;
#6 = COORDINATED_UNIVERSAL_TIME_OFFSET ( 1, 0, .AHEAD. ) ;
#7 = VERTEX_POINT ( 'NONE', #177 ) ;
#8 = ORIENTED_EDGE ( 'NONE', *, *, #36, .T. ) ;
#9 = COORDINATED_UNIVERSAL_TIME_OFFSET ( 1, 0, .AHEAD. ) ;
#10 = CC_DESIGN_PERSON_AND_ORGANIZATION_ASSIGNMENT ( #51, #78, ( #60 ) ) ;
#11 = ORIENTED_EDGE ( 'NONE', *, *, #175, .T. ) ;
#12 = FACE_BOUND ( 'NONE', #101, .T. ) ;
#13 = DIRECTION ( 'NONE',  ( 1.000000000000000000, 0.000000000000000000, 0.000000000000000000 ) ) ;
#14 = DIRECTION ( 'NONE',  ( -1.000000000000000000, 0.000000000000000000, 0.000000000000000000 ) ) ;
#15 = CARTESIAN_POINT ( 'NONE',  ( 0.000000000000000000, 0.000000000000000000, 2.000000000000000000 ) ) ;
#16 = CARTESIAN_POINT ( 'NONE',  ( -2.000000000000000000, 0.000000000000000000, 2.000000000000000000 ) ) ;
#17 = APPLICATION_PROTOCOL_DEFINITION ( 'international standard', 'config_control_design', 1994, #202 ) ;
#18 = DIRECTION ( 'NONE',  ( 0.000000000000000000, 0.000000000000000000, 1.000000000000000000 ) ) ;
#19 = EDGE_CURVE ( 'NONE', #302, #298, #106, .T. ) ;
#20 = CARTESIAN_POINT ( 'NONE',  ( 0.000000000000000000, 0.000000000000000000, 2.200000000000007283 ) ) ;
#21 = DATE_AND_TIME ( #239, #191 ) ;
#22 = EDGE_CURVE ( 'NONE', #140, #245, #129, .T. ) ;
#23 = SECURITY_CLASSIFICATION_LEVEL ( 'unclassified' ) ;
#24 = VERTEX_POINT ( 'NONE', #37 ) ;
#25 = APPROVAL_STATUS ( 'not_yet_approved' ) ;
#26 = ORIENTED_EDGE ( 'NONE', *, *, #30, .T. ) ;
#27 = APPROVAL_STATUS ( 'not_yet_approved' ) ;
#28 = ORIENTED_EDGE ( 'NONE', *, *, #181, .T. ) ;
#29 = EDGE_LOOP ( 'NONE', ( #138, #100, #54, #46 ) ) ;
#30 = EDGE_CURVE ( 'NONE', #140, #119, #43, .T. ) ;
#31 = CIRCLE ( 'NONE', #77, 2.000000000000000000 ) ;
#32 = PLANE ( 'NONE',  #260 ) ;
#33 = DIRECTION ( 'NONE',  ( 1.000000000000000000, 0.000000000000000000, 0.000000000000000000 ) ) ;
#34 = CARTESIAN_POINT ( 'NONE',  ( 0.000000000000000000, 0.000000000000000000, 2.000000000000000000 ) ) ;
#35 = CARTESIAN_POINT ( 'NONE',  ( 0.000000000000000000, 0.000000000000000000, 2.000000000000000000 ) ) ;
#36 = EDGE_CURVE ( 'NONE', #24, #267, #206, .T. ) ;
#37 = CARTESIAN_POINT ( 'NONE',  ( 1.000000000000000000, 1.224646799147353207E-16, 202.0000000000000000 ) ) ;
#38 = PRODUCT_DEFINITION_SHAPE ( 'NONE', 'NONE',  #60 ) ;
#39 = FACE_OUTER_BOUND ( 'NONE', #75, .T. ) ;
#40 = CARTESIAN_POINT ( 'NONE',  ( 0.000000000000000000, 0.000000000000000000, 0.000000000000000000 ) ) ;
#41 = CARTESIAN_POINT ( 'NONE',  ( 1.000000000000000000, 1.224646799147353207E-16, 2.200000000000007283 ) ) ;
#42 = FACE_OUTER_BOUND ( 'NONE', #170, .T. ) ;
#43 = CIRCLE ( 'NONE', #228, 0.2000000000000000944 ) ;
#44 = DIRECTION ( 'NONE',  ( 1.000000000000000000, 0.000000000000000000, -0.000000000000000000 ) ) ;
#45 = PERSON_AND_ORGANIZATION_ROLE ( 'design_supplier' ) ;
#46 = ORIENTED_EDGE ( 'NONE', *, *, #22, .T. ) ;
#47 = APPROVAL_DATE_TIME ( #268, #126 ) ;
#48 = ORIENTED_EDGE ( 'NONE', *, *, #181, .F. ) ;
#49 = APPROVAL_STATUS ( 'not_yet_approved' ) ;
#50 = CIRCLE ( 'NONE', #171, 1.000000000000000000 ) ;
#51 = PERSON_AND_ORGANIZATION ( #122, #212 ) ;
#52 = EDGE_LOOP ( 'NONE', ( #163, #79, #143, #11 ) ) ;
#53 = CALENDAR_DATE ( 2022, 7, 7 ) ;
#54 = ORIENTED_EDGE ( 'NONE', *, *, #225, .T. ) ;
#55 = CARTESIAN_POINT ( 'NONE',  ( 1.200000000000000178, 0.000000000000000000, 2.000000000000003553 ) ) ;
#56 = APPROVAL ( #49, 'NEURÈENÝ' ) ;
#57 = VERTEX_POINT ( 'NONE', #59 ) ;
#58 = CARTESIAN_POINT ( 'NONE',  ( 1.000000000000000000, 1.224646799147353207E-16, 202.0000000000000000 ) ) ;
#59 = CARTESIAN_POINT ( 'NONE',  ( 2.000000000000000000, 2.449293598294706414E-16, 2.000000000000000000 ) ) ;
#60 = PRODUCT_DEFINITION ( 'NEZNÁMÝ', '', #265, #158 ) ;
#61 = APPROVAL_PERSON_ORGANIZATION ( #246, #126, #161 ) ;
#62 = FACE_OUTER_BOUND ( 'NONE', #52, .T. ) ;
#63 =( NAMED_UNIT ( * ) PLANE_ANGLE_UNIT ( ) SI_UNIT ( $, .RADIAN. ) );
#64 = AXIS2_PLACEMENT_3D ( 'NONE', #20, #18, #187 ) ;
#65 = DIRECTION ( 'NONE',  ( 0.000000000000000000, 0.000000000000000000, 1.000000000000000000 ) ) ;
#66 = CARTESIAN_POINT ( 'NONE',  ( -2.000000000000000000, 0.000000000000000000, 0.000000000000000000 ) ) ;
#67 = ADVANCED_FACE ( 'NONE', ( #12, #231 ), #32, .T. ) ;
#68 = AXIS2_PLACEMENT_3D ( 'NONE', #34, #174, #13 ) ;
#69 = CALENDAR_DATE ( 2022, 7, 7 ) ;
#70 = ORIENTED_EDGE ( 'NONE', *, *, #107, .T. ) ;
#71 = AXIS2_PLACEMENT_3D ( 'NONE', #40, #130, #44 ) ;
#72 = CALENDAR_DATE ( 2022, 7, 7 ) ;
#73 = ORIENTED_EDGE ( 'NONE', *, *, #283, .F. ) ;
#74 = EDGE_CURVE ( 'NONE', #24, #245, #224, .T. ) ;
#75 = EDGE_LOOP ( 'NONE', ( #275, #26, #243, #125 ) ) ;
#76 = CC_DESIGN_APPROVAL ( #126, ( #111 ) ) ;
#77 = AXIS2_PLACEMENT_3D ( 'NONE', #303, #102, #199 ) ;
#78 = PERSON_AND_ORGANIZATION_ROLE ( 'creator' ) ;
#79 = ORIENTED_EDGE ( 'NONE', *, *, #255, .F. ) ;
#80 = CARTESIAN_POINT ( 'NONE',  ( 0.000000000000000000, 0.000000000000000000, 2.200000000000007283 ) ) ;
#81 = CARTESIAN_POINT ( 'NONE',  ( 0.000000000000000000, 0.000000000000000000, 202.0000000000000000 ) ) ;
#82 = CYLINDRICAL_SURFACE ( 'NONE', #117, 2.000000000000000000 ) ;
#83 = CARTESIAN_POINT ( 'NONE',  ( -2.000000000000000000, 0.000000000000000000, 2.000000000000000000 ) ) ;
#84 = DIRECTION ( 'NONE',  ( 0.000000000000000000, 0.000000000000000000, 1.000000000000000000 ) ) ;
#85 = CC_DESIGN_PERSON_AND_ORGANIZATION_ASSIGNMENT ( #115, #118, ( #111 ) ) ;
#86 = CIRCLE ( 'NONE', #159, 1.200000000000000178 ) ;
#87 = DIRECTION ( 'NONE',  ( -1.000000000000000000, 0.000000000000000000, 0.000000000000000000 ) ) ;
#88 = ADVANCED_FACE ( 'NONE', ( #278 ), #226, .T. ) ;
#89 = CARTESIAN_POINT ( 'NONE',  ( 0.000000000000000000, 0.000000000000000000, 0.000000000000000000 ) ) ;
#90 = CC_DESIGN_APPROVAL ( #56, ( #60 ) ) ;
#91 = DIRECTION ( 'NONE',  ( 0.000000000000000000, 0.000000000000000000, 1.000000000000000000 ) ) ;
#92 = TOROIDAL_SURFACE ( 'NONE', #186, 1.200000000000000178, 0.2000000000000000111 ) ;
#93 = CIRCLE ( 'NONE', #256, 0.2000000000000000944 ) ;
#94 = APPROVAL_DATE_TIME ( #21, #144 ) ;
#95 = COORDINATED_UNIVERSAL_TIME_OFFSET ( 1, 0, .AHEAD. ) ;
#96 = ORIENTED_EDGE ( 'NONE', *, *, #36, .F. ) ;
#97 = ADVANCED_FACE ( 'NONE', ( #62 ), #151, .T. ) ;
#98 = CIRCLE ( 'NONE', #184, 2.000000000000000000 ) ;
#99 = DATE_TIME_ROLE ( 'classification_date' ) ;
#100 = ORIENTED_EDGE ( 'NONE', *, *, #252, .F. ) ;
#101 = EDGE_LOOP ( 'NONE', ( #300, #219 ) ) ;
#102 = DIRECTION ( 'NONE',  ( 0.000000000000000000, 0.000000000000000000, 1.000000000000000000 ) ) ;
#103 = CARTESIAN_POINT ( 'NONE',  ( 0.000000000000000000, 0.000000000000000000, 202.0000000000000000 ) ) ;
#104 = DIRECTION ( 'NONE',  ( 0.000000000000000000, 0.000000000000000000, 1.000000000000000000 ) ) ;
#105 = DIRECTION ( 'NONE',  ( -0.000000000000000000, -0.000000000000000000, -1.000000000000000000 ) ) ;
#106 = LINE ( 'NONE', #83, #139 ) ;
#107 = EDGE_CURVE ( 'NONE', #57, #302, #292, .T. ) ;
#108 = FACE_OUTER_BOUND ( 'NONE', #276, .T. ) ;
#109 = CC_DESIGN_PERSON_AND_ORGANIZATION_ASSIGNMENT ( #114, #45, ( #265 ) ) ;
#110 = AXIS2_PLACEMENT_3D ( 'NONE', #35, #105, #203 ) ;
#111 = SECURITY_CLASSIFICATION ( '', '', #23 ) ;
#112 = DIRECTION ( 'NONE',  ( -0.000000000000000000, -0.000000000000000000, -1.000000000000000000 ) ) ;
#113 =( GEOMETRIC_REPRESENTATION_CONTEXT ( 3 ) GLOBAL_UNCERTAINTY_ASSIGNED_CONTEXT ( ( #296 ) ) GLOBAL_UNIT_ASSIGNED_CONTEXT ( ( #234, #63, #207 ) ) REPRESENTATION_CONTEXT ( 'NONE', 'WORKASPACE' ) );
#114 = PERSON_AND_ORGANIZATION ( #122, #212 ) ;
#115 = PERSON_AND_ORGANIZATION ( #122, #212 ) ;
#116 = EDGE_LOOP ( 'NONE', ( #145, #196, #28, #241 ) ) ;
#117 = AXIS2_PLACEMENT_3D ( 'NONE', #178, #135, #87 ) ;
#118 = PERSON_AND_ORGANIZATION_ROLE ( 'classification_officer' ) ;
#119 = VERTEX_POINT ( 'NONE', #306 ) ;
#120 = CC_DESIGN_PERSON_AND_ORGANIZATION_ASSIGNMENT ( #266, #272, ( #265 ) ) ;
#121 = DIRECTION ( 'NONE',  ( -1.000000000000000000, 0.000000000000000000, 0.000000000000000000 ) ) ;
#122 = PERSON ( 'NEURÈENÝ', 'NEURÈENÝ', 'NEURÈENÝ', ('NEURÈENÝ'), ('NEURÈENÝ'), ('NEURÈENÝ') ) ;
#123 = CARTESIAN_POINT ( 'NONE',  ( 0.000000000000000000, 0.000000000000000000, 2.000000000000000000 ) ) ;
#124 = EDGE_LOOP ( 'NONE', ( #197, #48 ) ) ;
#125 = ORIENTED_EDGE ( 'NONE', *, *, #287, .F. ) ;
#126 = APPROVAL ( #27, 'NEURÈENÝ' ) ;
#127 = CYLINDRICAL_SURFACE ( 'NONE', #162, 1.000000000000000000 ) ;
#128 = DIRECTION ( 'NONE',  ( 0.000000000000000000, 0.000000000000000000, -1.000000000000000000 ) ) ;
#129 = CIRCLE ( 'NONE', #176, 1.000000000000000000 ) ;
#130 = DIRECTION ( 'NONE',  ( 0.000000000000000000, 0.000000000000000000, 1.000000000000000000 ) ) ;
#131 = CIRCLE ( 'NONE', #254, 2.000000000000000000 ) ;
#132 = LINE ( 'NONE', #213, #141 ) ;
#133 = EDGE_CURVE ( 'NONE', #119, #167, #168, .T. ) ;
#134 = CYLINDRICAL_SURFACE ( 'NONE', #273, 1.000000000000000000 ) ;
#135 = DIRECTION ( 'NONE',  ( -0.000000000000000000, -0.000000000000000000, -1.000000000000000000 ) ) ;
#136 = PERSON_AND_ORGANIZATION ( #122, #212 ) ;
#137 = PERSON_AND_ORGANIZATION_ROLE ( 'design_owner' ) ;
#138 = ORIENTED_EDGE ( 'NONE', *, *, #74, .F. ) ;
#139 = VECTOR ( 'NONE', #198, 1000.000000000000000 ) ;
#140 = VERTEX_POINT ( 'NONE', #282 ) ;
#141 = VECTOR ( 'NONE', #182, 1000.000000000000000 ) ;
#142 = DATE_TIME_ROLE ( 'creation_date' ) ;
#143 = ORIENTED_EDGE ( 'NONE', *, *, #19, .T. ) ;
#144 = APPROVAL ( #25, 'NEURÈENÝ' ) ;
#145 = ORIENTED_EDGE ( 'NONE', *, *, #107, .F. ) ;
#146 = CC_DESIGN_SECURITY_CLASSIFICATION ( #111, ( #265 ) ) ;
#147 = DIRECTION ( 'NONE',  ( 0.000000000000000000, 0.000000000000000000, 1.000000000000000000 ) ) ;
#148 = DIRECTION ( 'NONE',  ( 1.000000000000000000, 0.000000000000000000, -0.000000000000000000 ) ) ;
#149 = DIRECTION ( 'NONE',  ( -0.000000000000000000, -0.000000000000000000, -1.000000000000000000 ) ) ;
#150 = AXIS2_PLACEMENT_3D ( 'NONE', #235, #1, #288 ) ;
#151 = CYLINDRICAL_SURFACE ( 'NONE', #211, 2.000000000000000000 ) ;
#152 = FACE_OUTER_BOUND ( 'NONE', #124, .T. ) ;
#153 = DIRECTION ( 'NONE',  ( 1.000000000000000000, 0.000000000000000000, 0.000000000000000000 ) ) ;
#154 = EDGE_CURVE ( 'NONE', #167, #119, #86, .T. ) ;
#155 = DIRECTION ( 'NONE',  ( 0.000000000000000000, 0.000000000000000000, 1.000000000000000000 ) ) ;
#156 = DIRECTION ( 'NONE',  ( 1.000000000000000000, 0.000000000000000000, 0.000000000000000000 ) ) ;
#157 = CARTESIAN_POINT ( 'NONE',  ( 0.000000000000000000, 0.000000000000000000, 2.200000000000007283 ) ) ;
#158 = DESIGN_CONTEXT ( 'detailed design', #4, 'design' ) ;
#159 = AXIS2_PLACEMENT_3D ( 'NONE', #179, #149, #253 ) ;
#160 = APPROVAL_PERSON_ORGANIZATION ( #240, #144, #194 ) ;
#161 = APPROVAL_ROLE ( '' ) ;
#162 = AXIS2_PLACEMENT_3D ( 'NONE', #103, #232, #121 ) ;
#163 = ORIENTED_EDGE ( 'NONE', *, *, #216, .F. ) ;
#164 = CC_DESIGN_PERSON_AND_ORGANIZATION_ASSIGNMENT ( #136, #137, ( #209 ) ) ;
#165 = ADVANCED_FACE ( 'NONE', ( #257 ), #127, .T. ) ;
#166 = DATE_AND_TIME ( #69, #223 ) ;
#167 = VERTEX_POINT ( 'NONE', #55 ) ;
#168 = CIRCLE ( 'NONE', #110, 1.200000000000000178 ) ;
#169 = DATE_AND_TIME ( #53, #274 ) ;
#170 = EDGE_LOOP ( 'NONE', ( #96, #193, #218, #291 ) ) ;
#171 = AXIS2_PLACEMENT_3D ( 'NONE', #157, #155, #153 ) ;
#172 = DIRECTION ( 'NONE',  ( 1.000000000000000000, 0.000000000000000000, 0.000000000000000000 ) ) ;
#173 = ORIENTED_EDGE ( 'NONE', *, *, #30, .F. ) ;
#174 = DIRECTION ( 'NONE',  ( 0.000000000000000000, 0.000000000000000000, 1.000000000000000000 ) ) ;
#175 = EDGE_CURVE ( 'NONE', #298, #7, #31, .T. ) ;
#176 = AXIS2_PLACEMENT_3D ( 'NONE', #80, #147, #249 ) ;
#177 = CARTESIAN_POINT ( 'NONE',  ( 2.000000000000000000, 2.449293598294706414E-16, 0.000000000000000000 ) ) ;
#178 = CARTESIAN_POINT ( 'NONE',  ( 0.000000000000000000, 0.000000000000000000, 2.000000000000000000 ) ) ;
#179 = CARTESIAN_POINT ( 'NONE',  ( 0.000000000000000000, 0.000000000000000000, 2.000000000000000000 ) ) ;
#180 = CARTESIAN_POINT ( 'NONE',  ( 0.000000000000000000, 0.000000000000000000, 202.0000000000000000 ) ) ;
#181 = EDGE_CURVE ( 'NONE', #7, #298, #131, .T. ) ;
#182 = DIRECTION ( 'NONE',  ( -0.000000000000000000, -0.000000000000000000, -1.000000000000000000 ) ) ;
#183 = DIRECTION ( 'NONE',  ( 0.000000000000000000, 0.000000000000000000, 1.000000000000000000 ) ) ;
#184 = AXIS2_PLACEMENT_3D ( 'NONE', #258, #65, #156 ) ;
#185 = PLANE ( 'NONE',  #71 ) ;
#186 = AXIS2_PLACEMENT_3D ( 'NONE', #264, #91, #3 ) ;
#187 = DIRECTION ( 'NONE',  ( 1.000000000000000000, 0.000000000000000000, 0.000000000000000000 ) ) ;
#188 = CC_DESIGN_DATE_AND_TIME_ASSIGNMENT ( #189, #99, ( #111 ) ) ;
#189 = DATE_AND_TIME ( #215, #271 ) ;
#190 = ORIENTED_EDGE ( 'NONE', *, *, #252, .T. ) ;
#191 = LOCAL_TIME ( 14, 58, 31.00000000000000000, #9 ) ;
#192 = APPROVAL_ROLE ( '' ) ;
#193 = ORIENTED_EDGE ( 'NONE', *, *, #74, .T. ) ;
#194 = APPROVAL_ROLE ( '' ) ;
#195 = ORIENTED_EDGE ( 'NONE', *, *, #255, .T. ) ;
#196 = ORIENTED_EDGE ( 'NONE', *, *, #216, .T. ) ;
#197 = ORIENTED_EDGE ( 'NONE', *, *, #175, .F. ) ;
#198 = DIRECTION ( 'NONE',  ( -0.000000000000000000, -0.000000000000000000, -1.000000000000000000 ) ) ;
#199 = DIRECTION ( 'NONE',  ( 1.000000000000000000, 0.000000000000000000, 0.000000000000000000 ) ) ;
#200 = DIRECTION ( 'NONE',  ( 1.000000000000000000, 0.000000000000000000, 0.000000000000000000 ) ) ;
#201 = TOROIDAL_SURFACE ( 'NONE', #64, 1.200000000000000178, 0.2000000000000000111 ) ;
#202 = APPLICATION_CONTEXT ( 'configuration controlled 3d designs of mechanical parts and assemblies' ) ;
#203 = DIRECTION ( 'NONE',  ( 1.000000000000000000, 0.000000000000000000, 0.000000000000000000 ) ) ;
#204 = MANIFOLD_SOLID_BREP ( 'Zaoblit1', #279 ) ;
#205 = DIRECTION ( 'NONE',  ( 1.224646799147353207E-16, 1.000000000000000000, -0.000000000000000000 ) ) ;
#206 = CIRCLE ( 'NONE', #222, 1.000000000000000000 ) ;
#207 =( NAMED_UNIT ( * ) SI_UNIT ( $, .STERADIAN. ) SOLID_ANGLE_UNIT ( ) );
#208 = ADVANCED_FACE ( 'NONE', ( #305 ), #82, .T. ) ;
#209 = PRODUCT ( '9b03', '9b03', '', ( #5 ) ) ;
#210 = CARTESIAN_POINT ( 'NONE',  ( 2.000000000000000000, 2.449293598294706414E-16, 2.000000000000000000 ) ) ;
#211 = AXIS2_PLACEMENT_3D ( 'NONE', #123, #229, #14 ) ;
#212 = ORGANIZATION ( 'NEURÈENÝ', 'NEURÈENÝ', '' ) ;
#213 = CARTESIAN_POINT ( 'NONE',  ( -1.000000000000000000, 0.000000000000000000, 202.0000000000000000 ) ) ;
#214 = ADVANCED_FACE ( 'NONE', ( #39 ), #201, .F. ) ;
#215 = CALENDAR_DATE ( 2022, 7, 7 ) ;
#216 = EDGE_CURVE ( 'NONE', #57, #7, #261, .T. ) ;
#217 = COORDINATED_UNIVERSAL_TIME_OFFSET ( 1, 0, .AHEAD. ) ;
#218 = ORIENTED_EDGE ( 'NONE', *, *, #283, .T. ) ;
#219 = ORIENTED_EDGE ( 'NONE', *, *, #133, .T. ) ;
#220 = EDGE_LOOP ( 'NONE', ( #195, #70 ) ) ;
#221 = ORIENTED_EDGE ( 'NONE', *, *, #133, .F. ) ;
#222 = AXIS2_PLACEMENT_3D ( 'NONE', #81, #281, #33 ) ;
#223 = LOCAL_TIME ( 14, 58, 31.00000000000000000, #6 ) ;
#224 = LINE ( 'NONE', #58, #270 ) ;
#225 = EDGE_CURVE ( 'NONE', #267, #140, #132, .T. ) ;
#226 = PLANE ( 'NONE',  #237 ) ;
#227 = PRODUCT_RELATED_PRODUCT_CATEGORY ( 'detail', '', ( #209 ) ) ;
#228 = AXIS2_PLACEMENT_3D ( 'NONE', #284, #205, #250 ) ;
#229 = DIRECTION ( 'NONE',  ( -0.000000000000000000, -0.000000000000000000, -1.000000000000000000 ) ) ;
#230 = ADVANCED_FACE ( 'NONE', ( #108 ), #92, .F. ) ;
#231 = FACE_OUTER_BOUND ( 'NONE', #220, .T. ) ;
#232 = DIRECTION ( 'NONE',  ( -0.000000000000000000, -0.000000000000000000, -1.000000000000000000 ) ) ;
#233 = DIRECTION ( 'NONE',  ( -1.000000000000000000, 0.000000000000000000, 0.000000000000000000 ) ) ;
#234 =( LENGTH_UNIT ( ) NAMED_UNIT ( * ) SI_UNIT ( .MILLI., .METRE. ) );
#235 = CARTESIAN_POINT ( 'NONE',  ( 0.000000000000000000, 0.000000000000000000, 202.0000000000000000 ) ) ;
#236 = CARTESIAN_POINT ( 'NONE',  ( 0.000000000000000000, 0.000000000000000000, 202.0000000000000000 ) ) ;
#237 = AXIS2_PLACEMENT_3D ( 'NONE', #180, #84, #251 ) ;
#238 = AXIS2_PLACEMENT_3D ( 'NONE', #89, #183, #172 ) ;
#239 = CALENDAR_DATE ( 2022, 7, 7 ) ;
#240 = PERSON_AND_ORGANIZATION ( #122, #212 ) ;
#241 = ORIENTED_EDGE ( 'NONE', *, *, #19, .F. ) ;
#242 = ADVANCED_FACE ( 'NONE', ( #152 ), #185, .F. ) ;
#243 = ORIENTED_EDGE ( 'NONE', *, *, #154, .F. ) ;
#244 = VECTOR ( 'NONE', #286, 1000.000000000000000 ) ;
#245 = VERTEX_POINT ( 'NONE', #41 ) ;
#246 = PERSON_AND_ORGANIZATION ( #122, #212 ) ;
#247 = EDGE_LOOP ( 'NONE', ( #190, #8 ) ) ;
#248 = APPROVAL_PERSON_ORGANIZATION ( #301, #56, #192 ) ;
#249 = DIRECTION ( 'NONE',  ( 1.000000000000000000, 0.000000000000000000, 0.000000000000000000 ) ) ;
#250 = DIRECTION ( 'NONE',  ( -1.000000000000000000, 1.224646799147351975E-16, 0.000000000000000000 ) ) ;
#251 = DIRECTION ( 'NONE',  ( 1.000000000000000000, 0.000000000000000000, -0.000000000000000000 ) ) ;
#252 = EDGE_CURVE ( 'NONE', #267, #24, #2, .T. ) ;
#253 = DIRECTION ( 'NONE',  ( 1.000000000000000000, 0.000000000000000000, 0.000000000000000000 ) ) ;
#254 = AXIS2_PLACEMENT_3D ( 'NONE', #304, #104, #200 ) ;
#255 = EDGE_CURVE ( 'NONE', #302, #57, #98, .T. ) ;
#256 = AXIS2_PLACEMENT_3D ( 'NONE', #289, #259, #128 ) ;
#257 = FACE_OUTER_BOUND ( 'NONE', #29, .T. ) ;
#258 = CARTESIAN_POINT ( 'NONE',  ( 0.000000000000000000, 0.000000000000000000, 2.000000000000000000 ) ) ;
#259 = DIRECTION ( 'NONE',  ( 0.000000000000000000, -1.000000000000000000, 0.000000000000000000 ) ) ;
#260 = AXIS2_PLACEMENT_3D ( 'NONE', #15, #280, #148 ) ;
#261 = LINE ( 'NONE', #210, #244 ) ;
#262 = CARTESIAN_POINT ( 'NONE',  ( -1.000000000000000000, 0.000000000000000000, 202.0000000000000000 ) ) ;
#263 = CC_DESIGN_DATE_AND_TIME_ASSIGNMENT ( #166, #142, ( #60 ) ) ;
#264 = CARTESIAN_POINT ( 'NONE',  ( 0.000000000000000000, 0.000000000000000000, 2.200000000000007283 ) ) ;
#265 = PRODUCT_DEFINITION_FORMATION_WITH_SPECIFIED_SOURCE ( 'LIBOVOLNÝ', '', #209, .NOT_KNOWN. ) ;
#266 = PERSON_AND_ORGANIZATION ( #122, #212 ) ;
#267 = VERTEX_POINT ( 'NONE', #262 ) ;
#268 = DATE_AND_TIME ( #72, #293 ) ;
#269 = APPLICATION_PROTOCOL_DEFINITION ( 'international standard', 'config_control_design', 1994, #4 ) ;
#270 = VECTOR ( 'NONE', #307, 1000.000000000000000 ) ;
#271 = LOCAL_TIME ( 14, 58, 31.00000000000000000, #95 ) ;
#272 = PERSON_AND_ORGANIZATION_ROLE ( 'creator' ) ;
#273 = AXIS2_PLACEMENT_3D ( 'NONE', #236, #112, #233 ) ;
#274 = LOCAL_TIME ( 14, 58, 31.00000000000000000, #217 ) ;
#275 = ORIENTED_EDGE ( 'NONE', *, *, #22, .F. ) ;
#276 = EDGE_LOOP ( 'NONE', ( #173, #73, #295, #221 ) ) ;
#277 = ADVANCED_FACE ( 'NONE', ( #42 ), #134, .T. ) ;
#278 = FACE_OUTER_BOUND ( 'NONE', #247, .T. ) ;
#279 = CLOSED_SHELL ( 'NONE', ( #214, #277, #208, #97, #67, #242, #165, #88, #230 ) ) ;
#280 = DIRECTION ( 'NONE',  ( 0.000000000000000000, 0.000000000000000000, 1.000000000000000000 ) ) ;
#281 = DIRECTION ( 'NONE',  ( 0.000000000000000000, 0.000000000000000000, 1.000000000000000000 ) ) ;
#282 = CARTESIAN_POINT ( 'NONE',  ( -1.000000000000000000, 0.000000000000000000, 2.200000000000007283 ) ) ;
#283 = EDGE_CURVE ( 'NONE', #245, #140, #50, .T. ) ;
#284 = CARTESIAN_POINT ( 'NONE',  ( -1.200000000000000178, 1.469576158976823799E-16, 2.200000000000007283 ) ) ;
#285 = CC_DESIGN_APPROVAL ( #144, ( #265 ) ) ;
#286 = DIRECTION ( 'NONE',  ( -0.000000000000000000, -0.000000000000000000, -1.000000000000000000 ) ) ;
#287 = EDGE_CURVE ( 'NONE', #245, #167, #93, .T. ) ;
#288 = DIRECTION ( 'NONE',  ( 1.000000000000000000, 0.000000000000000000, 0.000000000000000000 ) ) ;
#289 = CARTESIAN_POINT ( 'NONE',  ( 1.200000000000000178, 0.000000000000000000, 2.200000000000007283 ) ) ;
#290 = APPROVAL_DATE_TIME ( #169, #56 ) ;
#291 = ORIENTED_EDGE ( 'NONE', *, *, #225, .F. ) ;
#292 = CIRCLE ( 'NONE', #68, 2.000000000000000000 ) ;
#293 = LOCAL_TIME ( 14, 58, 31.00000000000000000, #294 ) ;
#294 = COORDINATED_UNIVERSAL_TIME_OFFSET ( 1, 0, .AHEAD. ) ;
#295 = ORIENTED_EDGE ( 'NONE', *, *, #287, .T. ) ;
#296 = UNCERTAINTY_MEASURE_WITH_UNIT (LENGTH_MEASURE( 1.000000000000000082E-05 ), #234, 'distance_accuracy_value', 'NONE');
#297 = SHAPE_DEFINITION_REPRESENTATION ( #38, #299 ) ;
#298 = VERTEX_POINT ( 'NONE', #66 ) ;
#299 = ADVANCED_BREP_SHAPE_REPRESENTATION ( '9b03', ( #204, #238 ), #113 ) ;
#300 = ORIENTED_EDGE ( 'NONE', *, *, #154, .T. ) ;
#301 = PERSON_AND_ORGANIZATION ( #122, #212 ) ;
#302 = VERTEX_POINT ( 'NONE', #16 ) ;
#303 = CARTESIAN_POINT ( 'NONE',  ( 0.000000000000000000, 0.000000000000000000, 0.000000000000000000 ) ) ;
#304 = CARTESIAN_POINT ( 'NONE',  ( 0.000000000000000000, 0.000000000000000000, 0.000000000000000000 ) ) ;
#305 = FACE_OUTER_BOUND ( 'NONE', #116, .T. ) ;
#306 = CARTESIAN_POINT ( 'NONE',  ( -1.200000000000000178, 1.469576158976823799E-16, 2.000000000000003553 ) ) ;
#307 = DIRECTION ( 'NONE',  ( -0.000000000000000000, -0.000000000000000000, -1.000000000000000000 ) ) ;
ENDSEC;
END-ISO-10303-21;
