ISO-10303-21;
HEADER;
FILE_DESCRIPTION (( 'STEP AP203' ),
    '1' );
FILE_NAME ('d063.STEP',
    '2022-07-07T12:19:01',
    ( '' ),
    ( '' ),
    'SwSTEP 2.0',
    'SolidWorks 2019',
    '' );
FILE_SCHEMA (( 'CONFIG_CONTROL_DESIGN' ));
ENDSEC;

DATA;
#1 = CALENDAR_DATE ( 2022, 7, 7 ) ;
#2 = APPROVAL_PERSON_ORGANIZATION ( #121, #227, #24 ) ;
#3 = PERSON_AND_ORGANIZATION ( #131, #167 ) ;
#4 = CC_DESIGN_PERSON_AND_ORGANIZATION_ASSIGNMENT ( #257, #215, ( #304 ) ) ;
#5 = DIRECTION ( 'NONE',  ( 1.000000000000000000, 0.000000000000000000, 0.000000000000000000 ) ) ;
#6 = ORIENTED_EDGE ( 'NONE', *, *, #142, .F. ) ;
#7 = EDGE_CURVE ( 'NONE', #290, #110, #133, .T. ) ;
#8 = AXIS2_PLACEMENT_3D ( 'NONE', #114, #65, #297 ) ;
#9 = FACE_OUTER_BOUND ( 'NONE', #218, .T. ) ;
#10 = CYLINDRICAL_SURFACE ( 'NONE', #192, 12.00000000000000178 ) ;
#11 = DIRECTION ( 'NONE',  ( -0.000000000000000000, -0.000000000000000000, -1.000000000000000000 ) ) ;
#12 = EDGE_CURVE ( 'NONE', #102, #124, #139, .T. ) ;
#13 = CARTESIAN_POINT ( 'NONE',  ( 9.199999999999999289, 0.000000000000000000, 6.999999999999992006 ) ) ;
#14 = CC_DESIGN_PERSON_AND_ORGANIZATION_ASSIGNMENT ( #3, #96, ( #304 ) ) ;
#15 = ORIENTED_EDGE ( 'NONE', *, *, #181, .F. ) ;
#16 = CARTESIAN_POINT ( 'NONE',  ( 0.000000000000000000, 0.000000000000000000, 7.199999999999984190 ) ) ;
#17 = AXIS2_PLACEMENT_3D ( 'NONE', #243, #80, #108 ) ;
#18 = CC_DESIGN_APPROVAL ( #205, ( #188 ) ) ;
#19 = FACE_OUTER_BOUND ( 'NONE', #219, .T. ) ;
#20 = DIRECTION ( 'NONE',  ( 0.000000000000000000, 0.000000000000000000, 1.000000000000000000 ) ) ;
#21 = ADVANCED_FACE ( 'NONE', ( #127 ), #10, .T. ) ;
#22 = DIRECTION ( 'NONE',  ( 1.000000000000000000, 0.000000000000000000, 0.000000000000000000 ) ) ;
#23 = SECURITY_CLASSIFICATION ( '', '', #191 ) ;
#24 = APPROVAL_ROLE ( '' ) ;
#25 = DIRECTION ( 'NONE',  ( 0.000000000000000000, 0.000000000000000000, 1.000000000000000000 ) ) ;
#26 = VERTEX_POINT ( 'NONE', #106 ) ;
#27 = COORDINATED_UNIVERSAL_TIME_OFFSET ( 1, 0, .AHEAD. ) ;
#28 = AXIS2_PLACEMENT_3D ( 'NONE', #211, #41, #64 ) ;
#29 = VERTEX_POINT ( 'NONE', #105 ) ;
#30 = CALENDAR_DATE ( 2022, 7, 7 ) ;
#31 = EDGE_LOOP ( 'NONE', ( #104, #52, #226, #261 ) ) ;
#32 = ORIENTED_EDGE ( 'NONE', *, *, #99, .T. ) ;
#33 = CIRCLE ( 'NONE', #141, 9.000000000000000000 ) ;
#34 = CARTESIAN_POINT ( 'NONE',  ( 0.000000000000000000, 0.000000000000000000, 0.000000000000000000 ) ) ;
#35 = MANIFOLD_SOLID_BREP ( 'Zaoblit1', #91 ) ;
#36 = EDGE_CURVE ( 'NONE', #124, #102, #54, .T. ) ;
#37 = CARTESIAN_POINT ( 'NONE',  ( 0.000000000000000000, 0.000000000000000000, 7.199999999999984190 ) ) ;
#38 = APPROVAL_PERSON_ORGANIZATION ( #195, #63, #50 ) ;
#39 = ORIENTED_EDGE ( 'NONE', *, *, #36, .F. ) ;
#40 = CARTESIAN_POINT ( 'NONE',  ( 0.000000000000000000, 0.000000000000000000, 7.000000000000000000 ) ) ;
#41 = DIRECTION ( 'NONE',  ( 0.000000000000000000, -1.000000000000000000, 0.000000000000000000 ) ) ;
#42 = LINE ( 'NONE', #67, #203 ) ;
#43 = CYLINDRICAL_SURFACE ( 'NONE', #222, 9.000000000000000000 ) ;
#44 = CARTESIAN_POINT ( 'NONE',  ( 0.000000000000000000, 0.000000000000000000, 0.000000000000000000 ) ) ;
#45 = CARTESIAN_POINT ( 'NONE',  ( 0.000000000000000000, 0.000000000000000000, 0.000000000000000000 ) ) ;
#46 = ORIENTED_EDGE ( 'NONE', *, *, #53, .F. ) ;
#47 = EDGE_CURVE ( 'NONE', #110, #26, #58, .T. ) ;
#48 = ORIENTED_EDGE ( 'NONE', *, *, #66, .T. ) ;
#49 =( NAMED_UNIT ( * ) PLANE_ANGLE_UNIT ( ) SI_UNIT ( $, .RADIAN. ) );
#50 = APPROVAL_ROLE ( '' ) ;
#51 = DATE_AND_TIME ( #307, #264 ) ;
#52 = ORIENTED_EDGE ( 'NONE', *, *, #190, .F. ) ;
#53 = EDGE_CURVE ( 'NONE', #290, #84, #57, .T. ) ;
#54 = CIRCLE ( 'NONE', #213, 9.199999999999999289 ) ;
#55 = ORIENTED_EDGE ( 'NONE', *, *, #209, .T. ) ;
#56 = CC_DESIGN_DATE_AND_TIME_ASSIGNMENT ( #118, #98, ( #23 ) ) ;
#57 = LINE ( 'NONE', #82, #113 ) ;
#58 = LINE ( 'NONE', #150, #97 ) ;
#59 = DIRECTION ( 'NONE',  ( 0.000000000000000000, 0.000000000000000000, 1.000000000000000000 ) ) ;
#60 = CC_DESIGN_SECURITY_CLASSIFICATION ( #23, ( #304 ) ) ;
#61 = DIRECTION ( 'NONE',  ( 1.000000000000000000, 0.000000000000000000, -0.000000000000000000 ) ) ;
#62 = CARTESIAN_POINT ( 'NONE',  ( 0.000000000000000000, 0.000000000000000000, 7.000000000000000000 ) ) ;
#63 = APPROVAL ( #263, 'NEURÈENÝ' ) ;
#64 = DIRECTION ( 'NONE',  ( 0.000000000000000000, 0.000000000000000000, -1.000000000000000000 ) ) ;
#65 = DIRECTION ( 'NONE',  ( 0.000000000000000000, 0.000000000000000000, 1.000000000000000000 ) ) ;
#66 = EDGE_CURVE ( 'NONE', #26, #84, #268, .T. ) ;
#67 = CARTESIAN_POINT ( 'NONE',  ( -9.000000000000000000, 0.000000000000000000, 407.0000000000000000 ) ) ;
#68 = DATE_TIME_ROLE ( 'creation_date' ) ;
#69 = ORIENTED_EDGE ( 'NONE', *, *, #12, .T. ) ;
#70 = TOROIDAL_SURFACE ( 'NONE', #238, 9.199999999999999289, 0.2000000000000000111 ) ;
#71 = DATE_AND_TIME ( #30, #242 ) ;
#72 = APPROVAL_ROLE ( '' ) ;
#73 = ORIENTED_EDGE ( 'NONE', *, *, #221, .T. ) ;
#74 = ORIENTED_EDGE ( 'NONE', *, *, #190, .T. ) ;
#75 = COORDINATED_UNIVERSAL_TIME_OFFSET ( 1, 0, .AHEAD. ) ;
#76 = TOROIDAL_SURFACE ( 'NONE', #117, 9.199999999999999289, 0.2000000000000000111 ) ;
#77 = DIRECTION ( 'NONE',  ( 1.000000000000000000, 0.000000000000000000, 0.000000000000000000 ) ) ;
#78 = CARTESIAN_POINT ( 'NONE',  ( 0.000000000000000000, 0.000000000000000000, 407.0000000000000000 ) ) ;
#79 = CIRCLE ( 'NONE', #245, 9.000000000000000000 ) ;
#80 = DIRECTION ( 'NONE',  ( -0.000000000000000000, -0.000000000000000000, -1.000000000000000000 ) ) ;
#81 = APPLICATION_CONTEXT ( 'configuration controlled 3d designs of mechanical parts and assemblies' ) ;
#82 = CARTESIAN_POINT ( 'NONE',  ( -12.00000000000000178, 0.000000000000000000, 7.000000000000000000 ) ) ;
#83 = DATE_AND_TIME ( #123, #193 ) ;
#84 = VERTEX_POINT ( 'NONE', #180 ) ;
#85 = DIRECTION ( 'NONE',  ( -1.000000000000000000, 0.000000000000000000, 0.000000000000000000 ) ) ;
#86 = AXIS2_PLACEMENT_3D ( 'NONE', #62, #87, #61 ) ;
#87 = DIRECTION ( 'NONE',  ( 0.000000000000000000, 0.000000000000000000, 1.000000000000000000 ) ) ;
#88 = DESIGN_CONTEXT ( 'detailed design', #92, 'design' ) ;
#89 = DIRECTION ( 'NONE',  ( -0.000000000000000000, -0.000000000000000000, -1.000000000000000000 ) ) ;
#90 = LINE ( 'NONE', #164, #107 ) ;
#91 = CLOSED_SHELL ( 'NONE', ( #214, #301, #21, #178, #194, #156, #128, #95, #292 ) ) ;
#92 = APPLICATION_CONTEXT ( 'configuration controlled 3d designs of mechanical parts and assemblies' ) ;
#93 = CC_DESIGN_PERSON_AND_ORGANIZATION_ASSIGNMENT ( #100, #196, ( #23 ) ) ;
#94 = APPROVAL_DATE_TIME ( #284, #205 ) ;
#95 = ADVANCED_FACE ( 'NONE', ( #9 ), #155, .T. ) ;
#96 = PERSON_AND_ORGANIZATION_ROLE ( 'design_supplier' ) ;
#97 = VECTOR ( 'NONE', #293, 1000.000000000000000 ) ;
#98 = DATE_TIME_ROLE ( 'classification_date' ) ;
#99 = EDGE_CURVE ( 'NONE', #198, #29, #235, .T. ) ;
#100 = PERSON_AND_ORGANIZATION ( #131, #167 ) ;
#101 = APPLICATION_PROTOCOL_DEFINITION ( 'international standard', 'config_control_design', 1994, #81 ) ;
#102 = VERTEX_POINT ( 'NONE', #291 ) ;
#103 = CIRCLE ( 'NONE', #285, 0.2000000000000005107 ) ;
#104 = ORIENTED_EDGE ( 'NONE', *, *, #154, .F. ) ;
#105 = CARTESIAN_POINT ( 'NONE',  ( -9.000000000000000000, 0.000000000000000000, 7.199999999999984190 ) ) ;
#106 = CARTESIAN_POINT ( 'NONE',  ( 12.00000000000000178, 1.469576158976824144E-15, 0.000000000000000000 ) ) ;
#107 = VECTOR ( 'NONE', #112, 1000.000000000000000 ) ;
#108 = DIRECTION ( 'NONE',  ( 1.000000000000000000, 0.000000000000000000, 0.000000000000000000 ) ) ;
#109 = CC_DESIGN_PERSON_AND_ORGANIZATION_ASSIGNMENT ( #283, #170, ( #188 ) ) ;
#110 = VERTEX_POINT ( 'NONE', #229 ) ;
#111 = DIRECTION ( 'NONE',  ( -1.000000000000000000, 0.000000000000000000, 0.000000000000000000 ) ) ;
#112 = DIRECTION ( 'NONE',  ( -0.000000000000000000, -0.000000000000000000, -1.000000000000000000 ) ) ;
#113 = VECTOR ( 'NONE', #241, 1000.000000000000000 ) ;
#114 = CARTESIAN_POINT ( 'NONE',  ( 0.000000000000000000, 0.000000000000000000, 0.000000000000000000 ) ) ;
#115 = CARTESIAN_POINT ( 'NONE',  ( 9.000000000000000000, 1.102182119232617714E-15, 407.0000000000000000 ) ) ;
#116 = DIRECTION ( 'NONE',  ( 0.000000000000000000, 0.000000000000000000, 1.000000000000000000 ) ) ;
#117 = AXIS2_PLACEMENT_3D ( 'NONE', #247, #187, #137 ) ;
#118 = DATE_AND_TIME ( #260, #228 ) ;
#119 = ORIENTED_EDGE ( 'NONE', *, *, #53, .T. ) ;
#120 = APPROVAL_PERSON_ORGANIZATION ( #174, #205, #72 ) ;
#121 = PERSON_AND_ORGANIZATION ( #131, #167 ) ;
#122 = ORIENTED_EDGE ( 'NONE', *, *, #7, .F. ) ;
#123 = CALENDAR_DATE ( 2022, 7, 7 ) ;
#124 = VERTEX_POINT ( 'NONE', #13 ) ;
#125 = ORIENTED_EDGE ( 'NONE', *, *, #256, .F. ) ;
#126 = CIRCLE ( 'NONE', #249, 9.000000000000000000 ) ;
#127 = FACE_OUTER_BOUND ( 'NONE', #200, .T. ) ;
#128 = ADVANCED_FACE ( 'NONE', ( #206 ), #246, .T. ) ;
#129 = SHAPE_DEFINITION_REPRESENTATION ( #224, #281 ) ;
#130 = EDGE_LOOP ( 'NONE', ( #225, #171, #39, #125 ) ) ;
#131 = PERSON ( 'NEURÈENÝ', 'NEURÈENÝ', 'NEURÈENÝ', ('NEURÈENÝ'), ('NEURÈENÝ'), ('NEURÈENÝ') ) ;
#132 = ORIENTED_EDGE ( 'NONE', *, *, #7, .T. ) ;
#133 = CIRCLE ( 'NONE', #303, 12.00000000000000178 ) ;
#134 = AXIS2_PLACEMENT_3D ( 'NONE', #78, #267, #111 ) ;
#135 = DIRECTION ( 'NONE',  ( 0.000000000000000000, 0.000000000000000000, 1.000000000000000000 ) ) ;
#136 = CARTESIAN_POINT ( 'NONE',  ( 0.000000000000000000, 0.000000000000000000, 7.000000000000000000 ) ) ;
#137 = DIRECTION ( 'NONE',  ( 1.000000000000000000, 0.000000000000000000, 0.000000000000000000 ) ) ;
#138 = CARTESIAN_POINT ( 'NONE',  ( -9.000000000000000000, 0.000000000000000000, 407.0000000000000000 ) ) ;
#139 = CIRCLE ( 'NONE', #17, 9.199999999999999289 ) ;
#140 = AXIS2_PLACEMENT_3D ( 'NONE', #40, #253, #22 ) ;
#141 = AXIS2_PLACEMENT_3D ( 'NONE', #163, #275, #300 ) ;
#142 = EDGE_CURVE ( 'NONE', #29, #102, #103, .T. ) ;
#143 = PLANE ( 'NONE',  #86 ) ;
#144 = CARTESIAN_POINT ( 'NONE',  ( 0.000000000000000000, 0.000000000000000000, 407.0000000000000000 ) ) ;
#145 = ORIENTED_EDGE ( 'NONE', *, *, #99, .F. ) ;
#146 = APPROVAL_STATUS ( 'not_yet_approved' ) ;
#147 =( GEOMETRIC_REPRESENTATION_CONTEXT ( 3 ) GLOBAL_UNCERTAINTY_ASSIGNED_CONTEXT ( ( #185 ) ) GLOBAL_UNIT_ASSIGNED_CONTEXT ( ( #237, #49, #287 ) ) REPRESENTATION_CONTEXT ( 'NONE', 'WORKASPACE' ) );
#148 = PERSON_AND_ORGANIZATION_ROLE ( 'design_owner' ) ;
#149 = ORIENTED_EDGE ( 'NONE', *, *, #36, .T. ) ;
#150 = CARTESIAN_POINT ( 'NONE',  ( 12.00000000000000178, 1.469576158976824144E-15, 7.000000000000000000 ) ) ;
#151 = APPROVAL_DATE_TIME ( #83, #63 ) ;
#152 = ORIENTED_EDGE ( 'NONE', *, *, #12, .F. ) ;
#153 = EDGE_LOOP ( 'NONE', ( #149, #69 ) ) ;
#154 = EDGE_CURVE ( 'NONE', #271, #198, #90, .T. ) ;
#155 = PLANE ( 'NONE',  #294 ) ;
#156 = ADVANCED_FACE ( 'NONE', ( #234 ), #233, .F. ) ;
#157 = LOCAL_TIME ( 14, 19, 1.000000000000000000, #75 ) ;
#158 = ORIENTED_EDGE ( 'NONE', *, *, #221, .F. ) ;
#159 = CARTESIAN_POINT ( 'NONE',  ( 9.000000000000000000, 1.102182119232617714E-15, 7.199999999999984190 ) ) ;
#160 = DIRECTION ( 'NONE',  ( 1.000000000000000000, 0.000000000000000000, 0.000000000000000000 ) ) ;
#161 = CYLINDRICAL_SURFACE ( 'NONE', #217, 12.00000000000000178 ) ;
#162 = CIRCLE ( 'NONE', #140, 12.00000000000000178 ) ;
#163 = CARTESIAN_POINT ( 'NONE',  ( 0.000000000000000000, 0.000000000000000000, 407.0000000000000000 ) ) ;
#164 = CARTESIAN_POINT ( 'NONE',  ( 9.000000000000000000, 1.102182119232617714E-15, 407.0000000000000000 ) ) ;
#165 = APPROVAL_DATE_TIME ( #51, #227 ) ;
#166 = EDGE_LOOP ( 'NONE', ( #132, #179 ) ) ;
#167 = ORGANIZATION ( 'NEURÈENÝ', 'NEURÈENÝ', '' ) ;
#168 = COORDINATED_UNIVERSAL_TIME_OFFSET ( 1, 0, .AHEAD. ) ;
#169 = ORIENTED_EDGE ( 'NONE', *, *, #47, .T. ) ;
#170 = PERSON_AND_ORGANIZATION_ROLE ( 'creator' ) ;
#171 = ORIENTED_EDGE ( 'NONE', *, *, #142, .T. ) ;
#172 = COORDINATED_UNIVERSAL_TIME_OFFSET ( 1, 0, .AHEAD. ) ;
#173 = ORIENTED_EDGE ( 'NONE', *, *, #256, .T. ) ;
#174 = PERSON_AND_ORGANIZATION ( #131, #167 ) ;
#175 = CARTESIAN_POINT ( 'NONE',  ( 0.000000000000000000, 0.000000000000000000, 7.000000000000000000 ) ) ;
#176 = DIRECTION ( 'NONE',  ( 1.000000000000000000, 0.000000000000000000, -0.000000000000000000 ) ) ;
#177 = PRODUCT_RELATED_PRODUCT_CATEGORY ( 'detail', '', ( #273 ) ) ;
#178 = ADVANCED_FACE ( 'NONE', ( #208 ), #161, .T. ) ;
#179 = ORIENTED_EDGE ( 'NONE', *, *, #251, .T. ) ;
#180 = CARTESIAN_POINT ( 'NONE',  ( -12.00000000000000178, 0.000000000000000000, 0.000000000000000000 ) ) ;
#181 = EDGE_CURVE ( 'NONE', #288, #29, #42, .T. ) ;
#182 = ORIENTED_EDGE ( 'NONE', *, *, #66, .F. ) ;
#183 = CIRCLE ( 'NONE', #28, 0.1999999999999996503 ) ;
#184 = DIRECTION ( 'NONE',  ( -0.000000000000000000, -0.000000000000000000, -1.000000000000000000 ) ) ;
#185 = UNCERTAINTY_MEASURE_WITH_UNIT (LENGTH_MEASURE( 1.000000000000000082E-05 ), #237, 'distance_accuracy_value', 'NONE');
#186 = DIRECTION ( 'NONE',  ( 1.000000000000000000, 0.000000000000000000, 0.000000000000000000 ) ) ;
#187 = DIRECTION ( 'NONE',  ( 0.000000000000000000, 0.000000000000000000, 1.000000000000000000 ) ) ;
#188 = PRODUCT_DEFINITION ( 'NEZNÁMÝ', '', #304, #88 ) ;
#189 = FACE_BOUND ( 'NONE', #153, .T. ) ;
#190 = EDGE_CURVE ( 'NONE', #288, #271, #33, .T. ) ;
#191 = SECURITY_CLASSIFICATION_LEVEL ( 'unclassified' ) ;
#192 = AXIS2_PLACEMENT_3D ( 'NONE', #136, #230, #266 ) ;
#193 = LOCAL_TIME ( 14, 19, 1.000000000000000000, #239 ) ;
#194 = ADVANCED_FACE ( 'NONE', ( #189, #255 ), #143, .T. ) ;
#195 = PERSON_AND_ORGANIZATION ( #131, #167 ) ;
#196 = PERSON_AND_ORGANIZATION_ROLE ( 'classification_officer' ) ;
#197 = ORIENTED_EDGE ( 'NONE', *, *, #251, .F. ) ;
#198 = VERTEX_POINT ( 'NONE', #159 ) ;
#199 = CC_DESIGN_APPROVAL ( #227, ( #304 ) ) ;
#200 = EDGE_LOOP ( 'NONE', ( #197, #169, #48, #46 ) ) ;
#201 = DIRECTION ( 'NONE',  ( 1.000000000000000000, 0.000000000000000000, 0.000000000000000000 ) ) ;
#202 = DIRECTION ( 'NONE',  ( 1.000000000000000000, 0.000000000000000000, 0.000000000000000000 ) ) ;
#203 = VECTOR ( 'NONE', #184, 1000.000000000000000 ) ;
#204 = DIRECTION ( 'NONE',  ( 0.000000000000000000, 0.000000000000000000, 1.000000000000000000 ) ) ;
#205 = APPROVAL ( #146, 'NEURÈENÝ' ) ;
#206 = FACE_OUTER_BOUND ( 'NONE', #31, .T. ) ;
#207 = DIRECTION ( 'NONE',  ( -1.000000000000000000, 1.224646799147353207E-16, 0.000000000000000000 ) ) ;
#208 = FACE_OUTER_BOUND ( 'NONE', #223, .T. ) ;
#209 = EDGE_CURVE ( 'NONE', #271, #288, #79, .T. ) ;
#210 = CARTESIAN_POINT ( 'NONE',  ( 0.000000000000000000, 0.000000000000000000, 7.199999999999984190 ) ) ;
#211 = CARTESIAN_POINT ( 'NONE',  ( 9.199999999999999289, 0.000000000000000000, 7.199999999999984190 ) ) ;
#212 = DIRECTION ( 'NONE',  ( 0.000000000000000000, 0.000000000000000000, 1.000000000000000000 ) ) ;
#213 = AXIS2_PLACEMENT_3D ( 'NONE', #270, #11, #202 ) ;
#214 = ADVANCED_FACE ( 'NONE', ( #276 ), #76, .F. ) ;
#215 = PERSON_AND_ORGANIZATION_ROLE ( 'creator' ) ;
#216 = DIRECTION ( 'NONE',  ( -1.000000000000000000, 0.000000000000000000, 0.000000000000000000 ) ) ;
#217 = AXIS2_PLACEMENT_3D ( 'NONE', #305, #89, #85 ) ;
#218 = EDGE_LOOP ( 'NONE', ( #74, #55 ) ) ;
#219 = EDGE_LOOP ( 'NONE', ( #6, #145, #173, #152 ) ) ;
#220 = ORIENTED_EDGE ( 'NONE', *, *, #154, .T. ) ;
#221 = EDGE_CURVE ( 'NONE', #84, #26, #289, .T. ) ;
#222 = AXIS2_PLACEMENT_3D ( 'NONE', #144, #282, #216 ) ;
#223 = EDGE_LOOP ( 'NONE', ( #259, #122, #119, #73 ) ) ;
#224 = PRODUCT_DEFINITION_SHAPE ( 'NONE', 'NONE',  #188 ) ;
#225 = ORIENTED_EDGE ( 'NONE', *, *, #252, .F. ) ;
#226 = ORIENTED_EDGE ( 'NONE', *, *, #181, .T. ) ;
#227 = APPROVAL ( #265, 'NEURÈENÝ' ) ;
#228 = LOCAL_TIME ( 14, 19, 1.000000000000000000, #168 ) ;
#229 = CARTESIAN_POINT ( 'NONE',  ( 12.00000000000000178, 1.469576158976824144E-15, 7.000000000000000000 ) ) ;
#230 = DIRECTION ( 'NONE',  ( -0.000000000000000000, -0.000000000000000000, -1.000000000000000000 ) ) ;
#231 = DIRECTION ( 'NONE',  ( 1.000000000000000000, 0.000000000000000000, 0.000000000000000000 ) ) ;
#232 = CARTESIAN_POINT ( 'NONE',  ( -12.00000000000000178, 0.000000000000000000, 7.000000000000000000 ) ) ;
#233 = PLANE ( 'NONE',  #8 ) ;
#234 = FACE_OUTER_BOUND ( 'NONE', #296, .T. ) ;
#235 = CIRCLE ( 'NONE', #274, 9.000000000000000000 ) ;
#236 = EDGE_LOOP ( 'NONE', ( #240, #220, #32, #15 ) ) ;
#237 =( LENGTH_UNIT ( ) NAMED_UNIT ( * ) SI_UNIT ( .MILLI., .METRE. ) );
#238 = AXIS2_PLACEMENT_3D ( 'NONE', #210, #250, #279 ) ;
#239 = COORDINATED_UNIVERSAL_TIME_OFFSET ( 1, 0, .AHEAD. ) ;
#240 = ORIENTED_EDGE ( 'NONE', *, *, #209, .F. ) ;
#241 = DIRECTION ( 'NONE',  ( -0.000000000000000000, -0.000000000000000000, -1.000000000000000000 ) ) ;
#242 = LOCAL_TIME ( 14, 19, 1.000000000000000000, #27 ) ;
#243 = CARTESIAN_POINT ( 'NONE',  ( 0.000000000000000000, 0.000000000000000000, 7.000000000000000000 ) ) ;
#244 = CARTESIAN_POINT ( 'NONE',  ( 0.000000000000000000, 0.000000000000000000, 407.0000000000000000 ) ) ;
#245 = AXIS2_PLACEMENT_3D ( 'NONE', #277, #212, #186 ) ;
#246 = CYLINDRICAL_SURFACE ( 'NONE', #134, 9.000000000000000000 ) ;
#247 = CARTESIAN_POINT ( 'NONE',  ( 0.000000000000000000, 0.000000000000000000, 7.199999999999984190 ) ) ;
#248 = DIRECTION ( 'NONE',  ( 1.224646799147353207E-16, 1.000000000000000000, -0.000000000000000000 ) ) ;
#249 = AXIS2_PLACEMENT_3D ( 'NONE', #16, #116, #160 ) ;
#250 = DIRECTION ( 'NONE',  ( 0.000000000000000000, 0.000000000000000000, 1.000000000000000000 ) ) ;
#251 = EDGE_CURVE ( 'NONE', #110, #290, #162, .T. ) ;
#252 = EDGE_CURVE ( 'NONE', #29, #198, #126, .T. ) ;
#253 = DIRECTION ( 'NONE',  ( 0.000000000000000000, 0.000000000000000000, 1.000000000000000000 ) ) ;
#254 = CC_DESIGN_PERSON_AND_ORGANIZATION_ASSIGNMENT ( #286, #148, ( #273 ) ) ;
#255 = FACE_OUTER_BOUND ( 'NONE', #166, .T. ) ;
#256 = EDGE_CURVE ( 'NONE', #198, #124, #183, .T. ) ;
#257 = PERSON_AND_ORGANIZATION ( #131, #167 ) ;
#258 = AXIS2_PLACEMENT_3D ( 'NONE', #34, #204, #295 ) ;
#259 = ORIENTED_EDGE ( 'NONE', *, *, #47, .F. ) ;
#260 = CALENDAR_DATE ( 2022, 7, 7 ) ;
#261 = ORIENTED_EDGE ( 'NONE', *, *, #252, .T. ) ;
#262 = MECHANICAL_CONTEXT ( 'NONE', #81, 'mechanical' ) ;
#263 = APPROVAL_STATUS ( 'not_yet_approved' ) ;
#264 = LOCAL_TIME ( 14, 19, 1.000000000000000000, #172 ) ;
#265 = APPROVAL_STATUS ( 'not_yet_approved' ) ;
#266 = DIRECTION ( 'NONE',  ( -1.000000000000000000, 0.000000000000000000, 0.000000000000000000 ) ) ;
#267 = DIRECTION ( 'NONE',  ( -0.000000000000000000, -0.000000000000000000, -1.000000000000000000 ) ) ;
#268 = CIRCLE ( 'NONE', #258, 12.00000000000000178 ) ;
#269 = CC_DESIGN_APPROVAL ( #63, ( #23 ) ) ;
#270 = CARTESIAN_POINT ( 'NONE',  ( 0.000000000000000000, 0.000000000000000000, 7.000000000000000000 ) ) ;
#271 = VERTEX_POINT ( 'NONE', #115 ) ;
#272 = DIRECTION ( 'NONE',  ( 0.000000000000000000, 0.000000000000000000, 1.000000000000000000 ) ) ;
#273 = PRODUCT ( 'd063', 'd063', '', ( #262 ) ) ;
#274 = AXIS2_PLACEMENT_3D ( 'NONE', #37, #135, #201 ) ;
#275 = DIRECTION ( 'NONE',  ( 0.000000000000000000, 0.000000000000000000, 1.000000000000000000 ) ) ;
#276 = FACE_OUTER_BOUND ( 'NONE', #130, .T. ) ;
#277 = CARTESIAN_POINT ( 'NONE',  ( 0.000000000000000000, 0.000000000000000000, 407.0000000000000000 ) ) ;
#278 = AXIS2_PLACEMENT_3D ( 'NONE', #44, #20, #231 ) ;
#279 = DIRECTION ( 'NONE',  ( 1.000000000000000000, 0.000000000000000000, 0.000000000000000000 ) ) ;
#280 = CC_DESIGN_DATE_AND_TIME_ASSIGNMENT ( #71, #68, ( #188 ) ) ;
#281 = ADVANCED_BREP_SHAPE_REPRESENTATION ( 'd063', ( #35, #298 ), #147 ) ;
#282 = DIRECTION ( 'NONE',  ( -0.000000000000000000, -0.000000000000000000, -1.000000000000000000 ) ) ;
#283 = PERSON_AND_ORGANIZATION ( #131, #167 ) ;
#284 = DATE_AND_TIME ( #1, #157 ) ;
#285 = AXIS2_PLACEMENT_3D ( 'NONE', #299, #248, #207 ) ;
#286 = PERSON_AND_ORGANIZATION ( #131, #167 ) ;
#287 =( NAMED_UNIT ( * ) SI_UNIT ( $, .STERADIAN. ) SOLID_ANGLE_UNIT ( ) );
#288 = VERTEX_POINT ( 'NONE', #138 ) ;
#289 = CIRCLE ( 'NONE', #278, 12.00000000000000178 ) ;
#290 = VERTEX_POINT ( 'NONE', #232 ) ;
#291 = CARTESIAN_POINT ( 'NONE',  ( -9.199999999999999289, 1.126675055215564822E-15, 6.999999999999992006 ) ) ;
#292 = ADVANCED_FACE ( 'NONE', ( #19 ), #70, .F. ) ;
#293 = DIRECTION ( 'NONE',  ( -0.000000000000000000, -0.000000000000000000, -1.000000000000000000 ) ) ;
#294 = AXIS2_PLACEMENT_3D ( 'NONE', #244, #59, #176 ) ;
#295 = DIRECTION ( 'NONE',  ( 1.000000000000000000, 0.000000000000000000, 0.000000000000000000 ) ) ;
#296 = EDGE_LOOP ( 'NONE', ( #158, #182 ) ) ;
#297 = DIRECTION ( 'NONE',  ( 1.000000000000000000, 0.000000000000000000, -0.000000000000000000 ) ) ;
#298 = AXIS2_PLACEMENT_3D ( 'NONE', #45, #25, #5 ) ;
#299 = CARTESIAN_POINT ( 'NONE',  ( -9.199999999999999289, 1.126675055215564822E-15, 7.199999999999984190 ) ) ;
#300 = DIRECTION ( 'NONE',  ( 1.000000000000000000, 0.000000000000000000, 0.000000000000000000 ) ) ;
#301 = ADVANCED_FACE ( 'NONE', ( #302 ), #43, .T. ) ;
#302 = FACE_OUTER_BOUND ( 'NONE', #236, .T. ) ;
#303 = AXIS2_PLACEMENT_3D ( 'NONE', #175, #272, #77 ) ;
#304 = PRODUCT_DEFINITION_FORMATION_WITH_SPECIFIED_SOURCE ( 'LIBOVOLNÝ', '', #273, .NOT_KNOWN. ) ;
#305 = CARTESIAN_POINT ( 'NONE',  ( 0.000000000000000000, 0.000000000000000000, 7.000000000000000000 ) ) ;
#306 = APPLICATION_PROTOCOL_DEFINITION ( 'international standard', 'config_control_design', 1994, #92 ) ;
#307 = CALENDAR_DATE ( 2022, 7, 7 ) ;
ENDSEC;
END-ISO-10303-21;
