ISO-10303-21;
HEADER;
FILE_DESCRIPTION (( 'STEP AP203' ),
    '1' );
FILE_NAME ('10e4.STEP',
    '2022-07-07T12:54:56',
    ( '' ),
    ( '' ),
    'SwSTEP 2.0',
    'SolidWorks 2019',
    '' );
FILE_SCHEMA (( 'CONFIG_CONTROL_DESIGN' ));
ENDSEC;

DATA;
#1 = ORIENTED_EDGE ( 'NONE', *, *, #125, .F. ) ;
#2 = DIRECTION ( 'NONE',  ( -0.000000000000000000, -0.000000000000000000, -1.000000000000000000 ) ) ;
#3 = CARTESIAN_POINT ( 'NONE',  ( 0.000000000000000000, 0.000000000000000000, 253.0000000000000000 ) ) ;
#4 = APPROVAL ( #223, 'NEURÈENÝ' ) ;
#5 = ORIENTED_EDGE ( 'NONE', *, *, #276, .F. ) ;
#6 = DIRECTION ( 'NONE',  ( -0.000000000000000000, -0.000000000000000000, -1.000000000000000000 ) ) ;
#7 = CIRCLE ( 'NONE', #126, 1.500000000000000222 ) ;
#8 = DIRECTION ( 'NONE',  ( -0.000000000000000000, -0.000000000000000000, -1.000000000000000000 ) ) ;
#9 = CARTESIAN_POINT ( 'NONE',  ( -1.700000000000000400, 2.081899558550500773E-16, 3.200000000000008171 ) ) ;
#10 = FACE_OUTER_BOUND ( 'NONE', #78, .T. ) ;
#11 = DIRECTION ( 'NONE',  ( 1.000000000000000000, 0.000000000000000000, 0.000000000000000000 ) ) ;
#12 = DIRECTION ( 'NONE',  ( -0.000000000000000000, -0.000000000000000000, -1.000000000000000000 ) ) ;
#13 = DIRECTION ( 'NONE',  ( 1.000000000000000000, 0.000000000000000000, 0.000000000000000000 ) ) ;
#14 = ADVANCED_FACE ( 'NONE', ( #292 ), #194, .T. ) ;
#15 = SECURITY_CLASSIFICATION_LEVEL ( 'unclassified' ) ;
#16 = CLOSED_SHELL ( 'NONE', ( #96, #122, #101, #172, #267, #62, #203, #14, #255 ) ) ;
#17 = AXIS2_PLACEMENT_3D ( 'NONE', #250, #171, #175 ) ;
#18 = LOCAL_TIME ( 14, 54, 56.00000000000000000, #132 ) ;
#19 = PERSON_AND_ORGANIZATION ( #127, #164 ) ;
#20 = PERSON_AND_ORGANIZATION ( #127, #164 ) ;
#21 = ORIENTED_EDGE ( 'NONE', *, *, #23, .T. ) ;
#22 = CARTESIAN_POINT ( 'NONE',  ( 0.000000000000000000, 0.000000000000000000, 0.000000000000000000 ) ) ;
#23 = EDGE_CURVE ( 'NONE', #236, #230, #216, .T. ) ;
#24 = COORDINATED_UNIVERSAL_TIME_OFFSET ( 1, 0, .AHEAD. ) ;
#25 = DIRECTION ( 'NONE',  ( 1.000000000000000000, 0.000000000000000000, -0.000000000000000000 ) ) ;
#26 = AXIS2_PLACEMENT_3D ( 'NONE', #102, #74, #25 ) ;
#27 = CC_DESIGN_PERSON_AND_ORGANIZATION_ASSIGNMENT ( #253, #88, ( #274 ) ) ;
#28 = AXIS2_PLACEMENT_3D ( 'NONE', #173, #64, #13 ) ;
#29 = DIRECTION ( 'NONE',  ( 1.000000000000000000, 0.000000000000000000, 0.000000000000000000 ) ) ;
#30 = CARTESIAN_POINT ( 'NONE',  ( 0.000000000000000000, 0.000000000000000000, 0.000000000000000000 ) ) ;
#31 = ORIENTED_EDGE ( 'NONE', *, *, #89, .T. ) ;
#32 = EDGE_CURVE ( 'NONE', #120, #167, #33, .T. ) ;
#33 = CIRCLE ( 'NONE', #202, 1.500000000000000222 ) ;
#34 = AXIS2_PLACEMENT_3D ( 'NONE', #218, #38, #221 ) ;
#35 = ORIENTED_EDGE ( 'NONE', *, *, #229, .T. ) ;
#36 = CARTESIAN_POINT ( 'NONE',  ( 0.000000000000000000, 0.000000000000000000, 3.000000000000000000 ) ) ;
#37 = DIRECTION ( 'NONE',  ( 0.000000000000000000, 0.000000000000000000, -1.000000000000000000 ) ) ;
#38 = DIRECTION ( 'NONE',  ( 0.000000000000000000, 0.000000000000000000, 1.000000000000000000 ) ) ;
#39 = CC_DESIGN_APPROVAL ( #4, ( #274 ) ) ;
#40 = FACE_OUTER_BOUND ( 'NONE', #191, .T. ) ;
#41 = DATE_AND_TIME ( #95, #98 ) ;
#42 = CIRCLE ( 'NONE', #254, 1.500000000000000222 ) ;
#43 = ORIENTED_EDGE ( 'NONE', *, *, #282, .F. ) ;
#44 = LOCAL_TIME ( 14, 54, 56.00000000000000000, #185 ) ;
#45 = PERSON_AND_ORGANIZATION ( #127, #164 ) ;
#46 = DATE_TIME_ROLE ( 'creation_date' ) ;
#47 = EDGE_LOOP ( 'NONE', ( #49, #147, #163, #213 ) ) ;
#48 = AXIS2_PLACEMENT_3D ( 'NONE', #100, #243, #29 ) ;
#49 = ORIENTED_EDGE ( 'NONE', *, *, #229, .F. ) ;
#50 =( GEOMETRIC_REPRESENTATION_CONTEXT ( 3 ) GLOBAL_UNCERTAINTY_ASSIGNED_CONTEXT ( ( #77 ) ) GLOBAL_UNIT_ASSIGNED_CONTEXT ( ( #228, #226, #306 ) ) REPRESENTATION_CONTEXT ( 'NONE', 'WORKASPACE' ) );
#51 = SHAPE_DEFINITION_REPRESENTATION ( #161, #251 ) ;
#52 = ORIENTED_EDGE ( 'NONE', *, *, #133, .T. ) ;
#53 = CARTESIAN_POINT ( 'NONE',  ( -3.000000000000000444, 0.000000000000000000, 3.000000000000000000 ) ) ;
#54 = EDGE_LOOP ( 'NONE', ( #214, #52 ) ) ;
#55 = AXIS2_PLACEMENT_3D ( 'NONE', #156, #66, #200 ) ;
#56 = CC_DESIGN_APPROVAL ( #84, ( #73 ) ) ;
#57 = CYLINDRICAL_SURFACE ( 'NONE', #69, 3.000000000000000444 ) ;
#58 = DIRECTION ( 'NONE',  ( -1.000000000000000000, 0.000000000000000000, 0.000000000000000000 ) ) ;
#59 = CARTESIAN_POINT ( 'NONE',  ( -3.000000000000000444, 0.000000000000000000, 3.000000000000000000 ) ) ;
#60 = AXIS2_PLACEMENT_3D ( 'NONE', #22, #205, #110 ) ;
#61 = CARTESIAN_POINT ( 'NONE',  ( 0.000000000000000000, 0.000000000000000000, 3.200000000000008171 ) ) ;
#62 = ADVANCED_FACE ( 'NONE', ( #99 ), #268, .F. ) ;
#63 = LINE ( 'NONE', #196, #278 ) ;
#64 = DIRECTION ( 'NONE',  ( 0.000000000000000000, 0.000000000000000000, 1.000000000000000000 ) ) ;
#65 = CARTESIAN_POINT ( 'NONE',  ( 0.000000000000000000, 0.000000000000000000, 3.200000000000008171 ) ) ;
#66 = DIRECTION ( 'NONE',  ( 0.000000000000000000, 0.000000000000000000, 1.000000000000000000 ) ) ;
#67 = PERSON_AND_ORGANIZATION ( #127, #164 ) ;
#68 = EDGE_LOOP ( 'NONE', ( #266, #307, #31, #294 ) ) ;
#69 = AXIS2_PLACEMENT_3D ( 'NONE', #190, #2, #165 ) ;
#70 = APPROVAL_ROLE ( '' ) ;
#71 = APPLICATION_PROTOCOL_DEFINITION ( 'international standard', 'config_control_design', 1994, #296 ) ;
#72 = AXIS2_PLACEMENT_3D ( 'NONE', #30, #238, #217 ) ;
#73 = PRODUCT_DEFINITION ( 'NEZNÁMÝ', '', #274, #271 ) ;
#74 = DIRECTION ( 'NONE',  ( 0.000000000000000000, 0.000000000000000000, 1.000000000000000000 ) ) ;
#75 = DIRECTION ( 'NONE',  ( 0.000000000000000000, 0.000000000000000000, 1.000000000000000000 ) ) ;
#76 = CARTESIAN_POINT ( 'NONE',  ( 0.000000000000000000, 0.000000000000000000, 3.200000000000008171 ) ) ;
#77 = UNCERTAINTY_MEASURE_WITH_UNIT (LENGTH_MEASURE( 1.000000000000000082E-05 ), #228, 'distance_accuracy_value', 'NONE');
#78 = EDGE_LOOP ( 'NONE', ( #5, #181, #286, #142 ) ) ;
#79 = DIRECTION ( 'NONE',  ( 1.000000000000000000, 0.000000000000000000, 0.000000000000000000 ) ) ;
#80 = CARTESIAN_POINT ( 'NONE',  ( 1.500000000000000222, 1.836970198721030181E-16, 253.0000000000000000 ) ) ;
#81 = CYLINDRICAL_SURFACE ( 'NONE', #115, 1.500000000000000222 ) ;
#82 = CARTESIAN_POINT ( 'NONE',  ( -1.700000000000000400, 2.081899558550500773E-16, 3.000000000000004441 ) ) ;
#83 = CYLINDRICAL_SURFACE ( 'NONE', #17, 3.000000000000000444 ) ;
#84 = APPROVAL ( #304, 'NEURÈENÝ' ) ;
#85 = AXIS2_PLACEMENT_3D ( 'NONE', #211, #123, #79 ) ;
#86 = CARTESIAN_POINT ( 'NONE',  ( 1.500000000000000222, 1.836970198721030181E-16, 253.0000000000000000 ) ) ;
#87 = PERSON_AND_ORGANIZATION_ROLE ( 'classification_officer' ) ;
#88 = PERSON_AND_ORGANIZATION_ROLE ( 'creator' ) ;
#89 = EDGE_CURVE ( 'NONE', #103, #186, #154, .T. ) ;
#90 = PERSON_AND_ORGANIZATION ( #127, #164 ) ;
#91 = VERTEX_POINT ( 'NONE', #270 ) ;
#92 = CC_DESIGN_SECURITY_CLASSIFICATION ( #225, ( #274 ) ) ;
#93 = CALENDAR_DATE ( 2022, 7, 7 ) ;
#94 = ORIENTED_EDGE ( 'NONE', *, *, #293, .T. ) ;
#95 = CALENDAR_DATE ( 2022, 7, 7 ) ;
#96 = ADVANCED_FACE ( 'NONE', ( #121 ), #201, .F. ) ;
#97 = ORIENTED_EDGE ( 'NONE', *, *, #152, .T. ) ;
#98 = LOCAL_TIME ( 14, 54, 56.00000000000000000, #208 ) ;
#99 = FACE_OUTER_BOUND ( 'NONE', #141, .T. ) ;
#100 = CARTESIAN_POINT ( 'NONE',  ( 0.000000000000000000, 0.000000000000000000, 3.200000000000008171 ) ) ;
#101 = ADVANCED_FACE ( 'NONE', ( #145 ), #57, .T. ) ;
#102 = CARTESIAN_POINT ( 'NONE',  ( 0.000000000000000000, 0.000000000000000000, 253.0000000000000000 ) ) ;
#103 = VERTEX_POINT ( 'NONE', #240 ) ;
#104 = DIRECTION ( 'NONE',  ( -1.000000000000000000, 1.224646799147353207E-16, 0.000000000000000000 ) ) ;
#105 = DIRECTION ( 'NONE',  ( 0.000000000000000000, 0.000000000000000000, 1.000000000000000000 ) ) ;
#106 = AXIS2_PLACEMENT_3D ( 'NONE', #178, #252, #128 ) ;
#107 = DIRECTION ( 'NONE',  ( 1.000000000000000000, 0.000000000000000000, 0.000000000000000000 ) ) ;
#108 = FACE_OUTER_BOUND ( 'NONE', #47, .T. ) ;
#109 = FACE_OUTER_BOUND ( 'NONE', #160, .T. ) ;
#110 = DIRECTION ( 'NONE',  ( 1.000000000000000000, 0.000000000000000000, 0.000000000000000000 ) ) ;
#111 = PERSON_AND_ORGANIZATION_ROLE ( 'design_supplier' ) ;
#112 = ORIENTED_EDGE ( 'NONE', *, *, #290, .T. ) ;
#113 = APPROVAL_STATUS ( 'not_yet_approved' ) ;
#114 = VERTEX_POINT ( 'NONE', #59 ) ;
#115 = AXIS2_PLACEMENT_3D ( 'NONE', #131, #222, #169 ) ;
#116 = CIRCLE ( 'NONE', #224, 0.2000000000000000944 ) ;
#117 = PERSON_AND_ORGANIZATION_ROLE ( 'design_owner' ) ;
#118 = CALENDAR_DATE ( 2022, 7, 7 ) ;
#119 = CIRCLE ( 'NONE', #299, 1.700000000000000400 ) ;
#120 = VERTEX_POINT ( 'NONE', #215 ) ;
#121 = FACE_OUTER_BOUND ( 'NONE', #264, .T. ) ;
#122 = ADVANCED_FACE ( 'NONE', ( #245 ), #265, .T. ) ;
#123 = DIRECTION ( 'NONE',  ( -0.000000000000000000, -0.000000000000000000, -1.000000000000000000 ) ) ;
#124 = ORIENTED_EDGE ( 'NONE', *, *, #177, .F. ) ;
#125 = EDGE_CURVE ( 'NONE', #114, #234, #146, .T. ) ;
#126 = AXIS2_PLACEMENT_3D ( 'NONE', #61, #105, #300 ) ;
#127 = PERSON ( 'NEURÈENÝ', 'NEURÈENÝ', 'NEURÈENÝ', ('NEURÈENÝ'), ('NEURÈENÝ'), ('NEURÈENÝ') ) ;
#128 = DIRECTION ( 'NONE',  ( 1.000000000000000000, 0.000000000000000000, -0.000000000000000000 ) ) ;
#129 = DIRECTION ( 'NONE',  ( 1.000000000000000000, 0.000000000000000000, 0.000000000000000000 ) ) ;
#130 = MANIFOLD_SOLID_BREP ( 'Zaoblit1', #16 ) ;
#131 = CARTESIAN_POINT ( 'NONE',  ( 0.000000000000000000, 0.000000000000000000, 253.0000000000000000 ) ) ;
#132 = COORDINATED_UNIVERSAL_TIME_OFFSET ( 1, 0, .AHEAD. ) ;
#133 = EDGE_CURVE ( 'NONE', #167, #120, #42, .T. ) ;
#134 = DIRECTION ( 'NONE',  ( -0.000000000000000000, -0.000000000000000000, -1.000000000000000000 ) ) ;
#135 = CIRCLE ( 'NONE', #155, 0.2000000000000000944 ) ;
#136 = COORDINATED_UNIVERSAL_TIME_OFFSET ( 1, 0, .AHEAD. ) ;
#137 = APPROVAL_ROLE ( '' ) ;
#138 = ORIENTED_EDGE ( 'NONE', *, *, #187, .F. ) ;
#139 = CIRCLE ( 'NONE', #284, 3.000000000000000444 ) ;
#140 = ORIENTED_EDGE ( 'NONE', *, *, #149, .T. ) ;
#141 = EDGE_LOOP ( 'NONE', ( #43, #124 ) ) ;
#142 = ORIENTED_EDGE ( 'NONE', *, *, #23, .F. ) ;
#143 = CIRCLE ( 'NONE', #34, 3.000000000000000444 ) ;
#144 = APPROVAL_PERSON_ORGANIZATION ( #20, #273, #137 ) ;
#145 = FACE_OUTER_BOUND ( 'NONE', #297, .T. ) ;
#146 = LINE ( 'NONE', #53, #283 ) ;
#147 = ORIENTED_EDGE ( 'NONE', *, *, #210, .F. ) ;
#148 = CC_DESIGN_DATE_AND_TIME_ASSIGNMENT ( #285, #46, ( #73 ) ) ;
#149 = EDGE_CURVE ( 'NONE', #230, #236, #119, .T. ) ;
#150 = DIRECTION ( 'NONE',  ( 1.224646799147353207E-16, 1.000000000000000000, -0.000000000000000000 ) ) ;
#151 = CARTESIAN_POINT ( 'NONE',  ( 3.000000000000000444, 3.673940397442060361E-16, 3.000000000000000000 ) ) ;
#152 = EDGE_CURVE ( 'NONE', #291, #114, #143, .T. ) ;
#153 = DIRECTION ( 'NONE',  ( 0.000000000000000000, 0.000000000000000000, 1.000000000000000000 ) ) ;
#154 = CIRCLE ( 'NONE', #48, 1.500000000000000222 ) ;
#155 = AXIS2_PLACEMENT_3D ( 'NONE', #277, #279, #37 ) ;
#156 = CARTESIAN_POINT ( 'NONE',  ( 0.000000000000000000, 0.000000000000000000, 0.000000000000000000 ) ) ;
#157 = DIRECTION ( 'NONE',  ( 0.000000000000000000, 0.000000000000000000, 1.000000000000000000 ) ) ;
#158 = CALENDAR_DATE ( 2022, 7, 7 ) ;
#159 = PERSON_AND_ORGANIZATION ( #127, #164 ) ;
#160 = EDGE_LOOP ( 'NONE', ( #138, #179, #94, #112 ) ) ;
#161 = PRODUCT_DEFINITION_SHAPE ( 'NONE', 'NONE',  #73 ) ;
#162 = MECHANICAL_CONTEXT ( 'NONE', #242, 'mechanical' ) ;
#163 = ORIENTED_EDGE ( 'NONE', *, *, #125, .T. ) ;
#164 = ORGANIZATION ( 'NEURÈENÝ', 'NEURÈENÝ', '' ) ;
#165 = DIRECTION ( 'NONE',  ( -1.000000000000000000, 0.000000000000000000, 0.000000000000000000 ) ) ;
#166 = DIRECTION ( 'NONE',  ( 1.000000000000000000, 0.000000000000000000, 0.000000000000000000 ) ) ;
#167 = VERTEX_POINT ( 'NONE', #80 ) ;
#168 = DIRECTION ( 'NONE',  ( 1.000000000000000000, 0.000000000000000000, 0.000000000000000000 ) ) ;
#169 = DIRECTION ( 'NONE',  ( -1.000000000000000000, 0.000000000000000000, 0.000000000000000000 ) ) ;
#170 = LOCAL_TIME ( 14, 54, 56.00000000000000000, #24 ) ;
#171 = DIRECTION ( 'NONE',  ( -0.000000000000000000, -0.000000000000000000, -1.000000000000000000 ) ) ;
#172 = ADVANCED_FACE ( 'NONE', ( #108 ), #83, .T. ) ;
#173 = CARTESIAN_POINT ( 'NONE',  ( 0.000000000000000000, 0.000000000000000000, 3.000000000000000000 ) ) ;
#174 = CC_DESIGN_PERSON_AND_ORGANIZATION_ASSIGNMENT ( #159, #87, ( #225 ) ) ;
#175 = DIRECTION ( 'NONE',  ( -1.000000000000000000, 0.000000000000000000, 0.000000000000000000 ) ) ;
#176 = VECTOR ( 'NONE', #134, 1000.000000000000000 ) ;
#177 = EDGE_CURVE ( 'NONE', #91, #234, #188, .T. ) ;
#178 = CARTESIAN_POINT ( 'NONE',  ( 0.000000000000000000, 0.000000000000000000, 3.000000000000000000 ) ) ;
#179 = ORIENTED_EDGE ( 'NONE', *, *, #32, .F. ) ;
#180 = DATE_AND_TIME ( #158, #18 ) ;
#181 = ORIENTED_EDGE ( 'NONE', *, *, #89, .F. ) ;
#182 = APPROVAL_ROLE ( '' ) ;
#183 = ORIENTED_EDGE ( 'NONE', *, *, #276, .T. ) ;
#184 = DATE_AND_TIME ( #93, #263 ) ;
#185 = COORDINATED_UNIVERSAL_TIME_OFFSET ( 1, 0, .AHEAD. ) ;
#186 = VERTEX_POINT ( 'NONE', #199 ) ;
#187 = EDGE_CURVE ( 'NONE', #167, #103, #219, .T. ) ;
#188 = CIRCLE ( 'NONE', #55, 3.000000000000000444 ) ;
#189 = ORIENTED_EDGE ( 'NONE', *, *, #149, .F. ) ;
#190 = CARTESIAN_POINT ( 'NONE',  ( 0.000000000000000000, 0.000000000000000000, 3.000000000000000000 ) ) ;
#191 = EDGE_LOOP ( 'NONE', ( #227, #97 ) ) ;
#192 = AXIS2_PLACEMENT_3D ( 'NONE', #65, #157, #129 ) ;
#193 = PRODUCT_RELATED_PRODUCT_CATEGORY ( 'detail', '', ( #232 ) ) ;
#194 = PLANE ( 'NONE',  #26 ) ;
#195 = DIRECTION ( 'NONE',  ( 0.000000000000000000, 0.000000000000000000, 1.000000000000000000 ) ) ;
#196 = CARTESIAN_POINT ( 'NONE',  ( 3.000000000000000444, 3.673940397442060361E-16, 3.000000000000000000 ) ) ;
#197 = EDGE_CURVE ( 'NONE', #103, #230, #135, .T. ) ;
#198 = DIRECTION ( 'NONE',  ( -0.000000000000000000, -0.000000000000000000, -1.000000000000000000 ) ) ;
#199 = CARTESIAN_POINT ( 'NONE',  ( -1.500000000000000222, 0.000000000000000000, 3.200000000000008171 ) ) ;
#200 = DIRECTION ( 'NONE',  ( 1.000000000000000000, 0.000000000000000000, 0.000000000000000000 ) ) ;
#201 = TOROIDAL_SURFACE ( 'NONE', #244, 1.700000000000000400, 0.2000000000000000111 ) ;
#202 = AXIS2_PLACEMENT_3D ( 'NONE', #3, #237, #168 ) ;
#203 = ADVANCED_FACE ( 'NONE', ( #109 ), #81, .T. ) ;
#204 = CC_DESIGN_APPROVAL ( #273, ( #225 ) ) ;
#205 = DIRECTION ( 'NONE',  ( 0.000000000000000000, 0.000000000000000000, 1.000000000000000000 ) ) ;
#206 = APPROVAL_DATE_TIME ( #41, #84 ) ;
#207 = ORIENTED_EDGE ( 'NONE', *, *, #290, .F. ) ;
#208 = COORDINATED_UNIVERSAL_TIME_OFFSET ( 1, 0, .AHEAD. ) ;
#209 = ORIENTED_EDGE ( 'NONE', *, *, #197, .F. ) ;
#210 = EDGE_CURVE ( 'NONE', #114, #291, #261, .T. ) ;
#211 = CARTESIAN_POINT ( 'NONE',  ( 0.000000000000000000, 0.000000000000000000, 3.000000000000000000 ) ) ;
#212 = AXIS2_PLACEMENT_3D ( 'NONE', #295, #6, #58 ) ;
#213 = ORIENTED_EDGE ( 'NONE', *, *, #282, .T. ) ;
#214 = ORIENTED_EDGE ( 'NONE', *, *, #32, .T. ) ;
#215 = CARTESIAN_POINT ( 'NONE',  ( -1.500000000000000222, 0.000000000000000000, 253.0000000000000000 ) ) ;
#216 = CIRCLE ( 'NONE', #85, 1.700000000000000400 ) ;
#217 = DIRECTION ( 'NONE',  ( 1.000000000000000000, 0.000000000000000000, -0.000000000000000000 ) ) ;
#218 = CARTESIAN_POINT ( 'NONE',  ( 0.000000000000000000, 0.000000000000000000, 3.000000000000000000 ) ) ;
#219 = LINE ( 'NONE', #86, #233 ) ;
#220 = CARTESIAN_POINT ( 'NONE',  ( -1.500000000000000222, 0.000000000000000000, 253.0000000000000000 ) ) ;
#221 = DIRECTION ( 'NONE',  ( 1.000000000000000000, 0.000000000000000000, 0.000000000000000000 ) ) ;
#222 = DIRECTION ( 'NONE',  ( -0.000000000000000000, -0.000000000000000000, -1.000000000000000000 ) ) ;
#223 = APPROVAL_STATUS ( 'not_yet_approved' ) ;
#224 = AXIS2_PLACEMENT_3D ( 'NONE', #9, #150, #104 ) ;
#225 = SECURITY_CLASSIFICATION ( '', '', #15 ) ;
#226 =( NAMED_UNIT ( * ) PLANE_ANGLE_UNIT ( ) SI_UNIT ( $, .RADIAN. ) );
#227 = ORIENTED_EDGE ( 'NONE', *, *, #210, .T. ) ;
#228 =( LENGTH_UNIT ( ) NAMED_UNIT ( * ) SI_UNIT ( .MILLI., .METRE. ) );
#229 = EDGE_CURVE ( 'NONE', #291, #91, #63, .T. ) ;
#230 = VERTEX_POINT ( 'NONE', #301 ) ;
#231 = PERSON_AND_ORGANIZATION_ROLE ( 'creator' ) ;
#232 = PRODUCT ( '10e4', '10e4', '', ( #162 ) ) ;
#233 = VECTOR ( 'NONE', #198, 1000.000000000000000 ) ;
#234 = VERTEX_POINT ( 'NONE', #248 ) ;
#235 = DATE_AND_TIME ( #118, #170 ) ;
#236 = VERTEX_POINT ( 'NONE', #82 ) ;
#237 = DIRECTION ( 'NONE',  ( 0.000000000000000000, 0.000000000000000000, 1.000000000000000000 ) ) ;
#238 = DIRECTION ( 'NONE',  ( 0.000000000000000000, 0.000000000000000000, 1.000000000000000000 ) ) ;
#239 = TOROIDAL_SURFACE ( 'NONE', #192, 1.700000000000000400, 0.2000000000000000111 ) ;
#240 = CARTESIAN_POINT ( 'NONE',  ( 1.500000000000000222, 1.836970198721030181E-16, 3.200000000000008171 ) ) ;
#241 = CC_DESIGN_PERSON_AND_ORGANIZATION_ASSIGNMENT ( #19, #117, ( #232 ) ) ;
#242 = APPLICATION_CONTEXT ( 'configuration controlled 3d designs of mechanical parts and assemblies' ) ;
#243 = DIRECTION ( 'NONE',  ( 0.000000000000000000, 0.000000000000000000, 1.000000000000000000 ) ) ;
#244 = AXIS2_PLACEMENT_3D ( 'NONE', #76, #75, #166 ) ;
#245 = FACE_OUTER_BOUND ( 'NONE', #68, .T. ) ;
#246 = CARTESIAN_POINT ( 'NONE',  ( 0.000000000000000000, 0.000000000000000000, 253.0000000000000000 ) ) ;
#247 = LINE ( 'NONE', #220, #176 ) ;
#248 = CARTESIAN_POINT ( 'NONE',  ( -3.000000000000000444, 0.000000000000000000, 0.000000000000000000 ) ) ;
#249 = APPROVAL_PERSON_ORGANIZATION ( #90, #4, #182 ) ;
#250 = CARTESIAN_POINT ( 'NONE',  ( 0.000000000000000000, 0.000000000000000000, 3.000000000000000000 ) ) ;
#251 = ADVANCED_BREP_SHAPE_REPRESENTATION ( '10e4', ( #130, #60 ), #50 ) ;
#252 = DIRECTION ( 'NONE',  ( 0.000000000000000000, 0.000000000000000000, 1.000000000000000000 ) ) ;
#253 = PERSON_AND_ORGANIZATION ( #127, #164 ) ;
#254 = AXIS2_PLACEMENT_3D ( 'NONE', #246, #153, #107 ) ;
#255 = ADVANCED_FACE ( 'NONE', ( #10 ), #239, .F. ) ;
#256 = APPROVAL_PERSON_ORGANIZATION ( #45, #84, #70 ) ;
#257 = APPROVAL_DATE_TIME ( #180, #4 ) ;
#258 = ORIENTED_EDGE ( 'NONE', *, *, #177, .T. ) ;
#259 = CC_DESIGN_PERSON_AND_ORGANIZATION_ASSIGNMENT ( #260, #111, ( #274 ) ) ;
#260 = PERSON_AND_ORGANIZATION ( #127, #164 ) ;
#261 = CIRCLE ( 'NONE', #28, 3.000000000000000444 ) ;
#262 = APPROVAL_DATE_TIME ( #235, #273 ) ;
#263 = LOCAL_TIME ( 14, 54, 56.00000000000000000, #136 ) ;
#264 = EDGE_LOOP ( 'NONE', ( #207, #183, #189, #209 ) ) ;
#265 = CYLINDRICAL_SURFACE ( 'NONE', #212, 1.500000000000000222 ) ;
#266 = ORIENTED_EDGE ( 'NONE', *, *, #133, .F. ) ;
#267 = ADVANCED_FACE ( 'NONE', ( #302, #40 ), #272, .T. ) ;
#268 = PLANE ( 'NONE',  #72 ) ;
#269 = CC_DESIGN_DATE_AND_TIME_ASSIGNMENT ( #184, #287, ( #225 ) ) ;
#270 = CARTESIAN_POINT ( 'NONE',  ( 3.000000000000000444, 3.673940397442060361E-16, 0.000000000000000000 ) ) ;
#271 = DESIGN_CONTEXT ( 'detailed design', #296, 'design' ) ;
#272 = PLANE ( 'NONE',  #106 ) ;
#273 = APPROVAL ( #113, 'NEURÈENÝ' ) ;
#274 = PRODUCT_DEFINITION_FORMATION_WITH_SPECIFIED_SOURCE ( 'LIBOVOLNÝ', '', #232, .NOT_KNOWN. ) ;
#275 = CARTESIAN_POINT ( 'NONE',  ( 0.000000000000000000, 0.000000000000000000, 0.000000000000000000 ) ) ;
#276 = EDGE_CURVE ( 'NONE', #186, #236, #116, .T. ) ;
#277 = CARTESIAN_POINT ( 'NONE',  ( 1.700000000000000400, 0.000000000000000000, 3.200000000000008171 ) ) ;
#278 = VECTOR ( 'NONE', #303, 1000.000000000000000 ) ;
#279 = DIRECTION ( 'NONE',  ( 0.000000000000000000, -1.000000000000000000, 0.000000000000000000 ) ) ;
#280 = APPLICATION_PROTOCOL_DEFINITION ( 'international standard', 'config_control_design', 1994, #242 ) ;
#281 = EDGE_LOOP ( 'NONE', ( #140, #21 ) ) ;
#282 = EDGE_CURVE ( 'NONE', #234, #91, #139, .T. ) ;
#283 = VECTOR ( 'NONE', #8, 1000.000000000000000 ) ;
#284 = AXIS2_PLACEMENT_3D ( 'NONE', #275, #195, #298 ) ;
#285 = DATE_AND_TIME ( #289, #44 ) ;
#286 = ORIENTED_EDGE ( 'NONE', *, *, #197, .T. ) ;
#287 = DATE_TIME_ROLE ( 'classification_date' ) ;
#288 = CC_DESIGN_PERSON_AND_ORGANIZATION_ASSIGNMENT ( #67, #231, ( #73 ) ) ;
#289 = CALENDAR_DATE ( 2022, 7, 7 ) ;
#290 = EDGE_CURVE ( 'NONE', #186, #103, #7, .T. ) ;
#291 = VERTEX_POINT ( 'NONE', #151 ) ;
#292 = FACE_OUTER_BOUND ( 'NONE', #54, .T. ) ;
#293 = EDGE_CURVE ( 'NONE', #120, #186, #247, .T. ) ;
#294 = ORIENTED_EDGE ( 'NONE', *, *, #293, .F. ) ;
#295 = CARTESIAN_POINT ( 'NONE',  ( 0.000000000000000000, 0.000000000000000000, 253.0000000000000000 ) ) ;
#296 = APPLICATION_CONTEXT ( 'configuration controlled 3d designs of mechanical parts and assemblies' ) ;
#297 = EDGE_LOOP ( 'NONE', ( #305, #35, #258, #1 ) ) ;
#298 = DIRECTION ( 'NONE',  ( 1.000000000000000000, 0.000000000000000000, 0.000000000000000000 ) ) ;
#299 = AXIS2_PLACEMENT_3D ( 'NONE', #36, #12, #11 ) ;
#300 = DIRECTION ( 'NONE',  ( 1.000000000000000000, 0.000000000000000000, 0.000000000000000000 ) ) ;
#301 = CARTESIAN_POINT ( 'NONE',  ( 1.700000000000000400, 0.000000000000000000, 3.000000000000004441 ) ) ;
#302 = FACE_BOUND ( 'NONE', #281, .T. ) ;
#303 = DIRECTION ( 'NONE',  ( -0.000000000000000000, -0.000000000000000000, -1.000000000000000000 ) ) ;
#304 = APPROVAL_STATUS ( 'not_yet_approved' ) ;
#305 = ORIENTED_EDGE ( 'NONE', *, *, #152, .F. ) ;
#306 =( NAMED_UNIT ( * ) SI_UNIT ( $, .STERADIAN. ) SOLID_ANGLE_UNIT ( ) );
#307 = ORIENTED_EDGE ( 'NONE', *, *, #187, .T. ) ;
ENDSEC;
END-ISO-10303-21;
