ISO-10303-21;
HEADER;
FILE_DESCRIPTION (( 'STEP AP203' ),
    '1' );
FILE_NAME ('a5d2.STEP',
    '2022-07-07T12:51:49',
    ( '' ),
    ( '' ),
    'SwSTEP 2.0',
    'SolidWorks 2019',
    '' );
FILE_SCHEMA (( 'CONFIG_CONTROL_DESIGN' ));
ENDSEC;

DATA;
#1 = CYLINDRICAL_SURFACE ( 'NONE', #78, 1.750000000000000222 ) ;
#2 = DIRECTION ( 'NONE',  ( 0.000000000000000000, 0.000000000000000000, 1.000000000000000000 ) ) ;
#3 = CARTESIAN_POINT ( 'NONE',  ( -1.950000000000000400, 2.388061258337339136E-16, 3.199999999999980638 ) ) ;
#4 = APPLICATION_PROTOCOL_DEFINITION ( 'international standard', 'config_control_design', 1994, #138 ) ;
#5 = CIRCLE ( 'NONE', #49, 1.750000000000000222 ) ;
#6 = DIRECTION ( 'NONE',  ( 1.000000000000000000, 0.000000000000000000, 0.000000000000000000 ) ) ;
#7 = CALENDAR_DATE ( 2022, 7, 7 ) ;
#8 = VECTOR ( 'NONE', #100, 1000.000000000000000 ) ;
#9 = CC_DESIGN_APPROVAL ( #230, ( #209 ) ) ;
#10 = PERSON_AND_ORGANIZATION ( #239, #75 ) ;
#11 = APPROVAL ( #82, 'NEURÈENÝ' ) ;
#12 = DATE_AND_TIME ( #130, #35 ) ;
#13 = ORIENTED_EDGE ( 'NONE', *, *, #81, .F. ) ;
#14 = TOROIDAL_SURFACE ( 'NONE', #30, 1.950000000000000400, 0.2000000000000000111 ) ;
#15 = EDGE_LOOP ( 'NONE', ( #180, #41, #183, #303 ) ) ;
#16 = ORIENTED_EDGE ( 'NONE', *, *, #154, .T. ) ;
#17 = ORIENTED_EDGE ( 'NONE', *, *, #206, .F. ) ;
#18 = CIRCLE ( 'NONE', #85, 1.750000000000000222 ) ;
#19 = VERTEX_POINT ( 'NONE', #63 ) ;
#20 = PRODUCT ( 'a5d2', 'a5d2', '', ( #235 ) ) ;
#21 = APPROVAL_STATUS ( 'not_yet_approved' ) ;
#22 = CARTESIAN_POINT ( 'NONE',  ( -3.500000000000000444, 0.000000000000000000, 3.000000000000000000 ) ) ;
#23 = FACE_OUTER_BOUND ( 'NONE', #211, .T. ) ;
#24 = DIRECTION ( 'NONE',  ( 1.224646799147353207E-16, 1.000000000000000000, -0.000000000000000000 ) ) ;
#25 = CARTESIAN_POINT ( 'NONE',  ( 0.000000000000000000, 0.000000000000000000, 3.000000000000000000 ) ) ;
#26 = CARTESIAN_POINT ( 'NONE',  ( 0.000000000000000000, 0.000000000000000000, 0.000000000000000000 ) ) ;
#27 = DIRECTION ( 'NONE',  ( 0.000000000000000000, 0.000000000000000000, 1.000000000000000000 ) ) ;
#28 = EDGE_CURVE ( 'NONE', #158, #277, #5, .T. ) ;
#29 =( NAMED_UNIT ( * ) SI_UNIT ( $, .STERADIAN. ) SOLID_ANGLE_UNIT ( ) );
#30 = AXIS2_PLACEMENT_3D ( 'NONE', #218, #252, #71 ) ;
#31 = CARTESIAN_POINT ( 'NONE',  ( -1.950000000000000400, 2.388061258337339136E-16, 2.999999999999990674 ) ) ;
#32 = APPROVAL_PERSON_ORGANIZATION ( #155, #87, #294 ) ;
#33 = DIRECTION ( 'NONE',  ( 0.000000000000000000, 0.000000000000000000, 1.000000000000000000 ) ) ;
#34 = CIRCLE ( 'NONE', #280, 3.500000000000000444 ) ;
#35 = LOCAL_TIME ( 14, 51, 49.00000000000000000, #222 ) ;
#36 = DATE_AND_TIME ( #129, #59 ) ;
#37 = PERSON_AND_ORGANIZATION_ROLE ( 'design_supplier' ) ;
#38 = EDGE_CURVE ( 'NONE', #296, #90, #181, .T. ) ;
#39 = APPROVAL_DATE_TIME ( #12, #87 ) ;
#40 = ORIENTED_EDGE ( 'NONE', *, *, #38, .F. ) ;
#41 = ORIENTED_EDGE ( 'NONE', *, *, #164, .F. ) ;
#42 = AXIS2_PLACEMENT_3D ( 'NONE', #3, #24, #99 ) ;
#43 = EDGE_LOOP ( 'NONE', ( #88, #251, #275, #203 ) ) ;
#44 = CARTESIAN_POINT ( 'NONE',  ( 1.750000000000000222, 2.143131898507868544E-16, 3.199999999999980638 ) ) ;
#45 = ORIENTED_EDGE ( 'NONE', *, *, #64, .T. ) ;
#46 = PRODUCT_DEFINITION_FORMATION_WITH_SPECIFIED_SOURCE ( 'LIBOVOLNÝ', '', #20, .NOT_KNOWN. ) ;
#47 = PERSON_AND_ORGANIZATION ( #239, #75 ) ;
#48 = DIRECTION ( 'NONE',  ( -0.000000000000000000, -0.000000000000000000, -1.000000000000000000 ) ) ;
#49 = AXIS2_PLACEMENT_3D ( 'NONE', #124, #240, #243 ) ;
#50 = CYLINDRICAL_SURFACE ( 'NONE', #139, 3.500000000000000444 ) ;
#51 = DIRECTION ( 'NONE',  ( -0.000000000000000000, -0.000000000000000000, -1.000000000000000000 ) ) ;
#52 = CIRCLE ( 'NONE', #221, 0.2000000000000000944 ) ;
#53 = CARTESIAN_POINT ( 'NONE',  ( -1.750000000000000222, 0.000000000000000000, 403.0000000000000000 ) ) ;
#54 = ADVANCED_FACE ( 'NONE', ( #307 ), #148, .T. ) ;
#55 = CLOSED_SHELL ( 'NONE', ( #223, #120, #196, #290, #113, #219, #54, #137, #273 ) ) ;
#56 = DIRECTION ( 'NONE',  ( 1.000000000000000000, 0.000000000000000000, 0.000000000000000000 ) ) ;
#57 = CARTESIAN_POINT ( 'NONE',  ( 1.950000000000000400, 0.000000000000000000, 2.999999999999990674 ) ) ;
#58 = DIRECTION ( 'NONE',  ( 0.000000000000000000, 0.000000000000000000, -1.000000000000000000 ) ) ;
#59 = LOCAL_TIME ( 14, 51, 49.00000000000000000, #172 ) ;
#60 = ADVANCED_BREP_SHAPE_REPRESENTATION ( 'a5d2', ( #244, #126 ), #61 ) ;
#61 =( GEOMETRIC_REPRESENTATION_CONTEXT ( 3 ) GLOBAL_UNCERTAINTY_ASSIGNED_CONTEXT ( ( #89 ) ) GLOBAL_UNIT_ASSIGNED_CONTEXT ( ( #264, #151, #29 ) ) REPRESENTATION_CONTEXT ( 'NONE', 'WORKASPACE' ) );
#62 = CC_DESIGN_PERSON_AND_ORGANIZATION_ASSIGNMENT ( #301, #93, ( #20 ) ) ;
#63 = CARTESIAN_POINT ( 'NONE',  ( 3.500000000000000444, 4.286263797015737088E-16, 0.000000000000000000 ) ) ;
#64 = EDGE_CURVE ( 'NONE', #158, #205, #92, .T. ) ;
#65 = CC_DESIGN_SECURITY_CLASSIFICATION ( #268, ( #46 ) ) ;
#66 = ORIENTED_EDGE ( 'NONE', *, *, #154, .F. ) ;
#67 = AXIS2_PLACEMENT_3D ( 'NONE', #216, #51, #191 ) ;
#68 = CALENDAR_DATE ( 2022, 7, 7 ) ;
#69 = CC_DESIGN_PERSON_AND_ORGANIZATION_ASSIGNMENT ( #293, #173, ( #268 ) ) ;
#70 = ORIENTED_EDGE ( 'NONE', *, *, #38, .T. ) ;
#71 = DIRECTION ( 'NONE',  ( 1.000000000000000000, 0.000000000000000000, 0.000000000000000000 ) ) ;
#72 = CARTESIAN_POINT ( 'NONE',  ( -3.500000000000000444, 0.000000000000000000, 3.000000000000000000 ) ) ;
#73 = DIRECTION ( 'NONE',  ( -0.000000000000000000, -0.000000000000000000, -1.000000000000000000 ) ) ;
#74 = DIRECTION ( 'NONE',  ( 1.000000000000000000, 0.000000000000000000, 0.000000000000000000 ) ) ;
#75 = ORGANIZATION ( 'NEURÈENÝ', 'NEURÈENÝ', '' ) ;
#76 = DIRECTION ( 'NONE',  ( -0.000000000000000000, -0.000000000000000000, -1.000000000000000000 ) ) ;
#77 = DIRECTION ( 'NONE',  ( 0.000000000000000000, 0.000000000000000000, 1.000000000000000000 ) ) ;
#78 = AXIS2_PLACEMENT_3D ( 'NONE', #121, #48, #189 ) ;
#79 = DIRECTION ( 'NONE',  ( 0.000000000000000000, 0.000000000000000000, 1.000000000000000000 ) ) ;
#80 = CARTESIAN_POINT ( 'NONE',  ( 0.000000000000000000, 0.000000000000000000, 0.000000000000000000 ) ) ;
#81 = EDGE_CURVE ( 'NONE', #90, #226, #287, .T. ) ;
#82 = APPROVAL_STATUS ( 'not_yet_approved' ) ;
#83 = CIRCLE ( 'NONE', #169, 1.750000000000000222 ) ;
#84 = PERSON_AND_ORGANIZATION_ROLE ( 'creator' ) ;
#85 = AXIS2_PLACEMENT_3D ( 'NONE', #306, #149, #305 ) ;
#86 = PERSON_AND_ORGANIZATION_ROLE ( 'creator' ) ;
#87 = APPROVAL ( #272, 'NEURÈENÝ' ) ;
#88 = ORIENTED_EDGE ( 'NONE', *, *, #295, .F. ) ;
#89 = UNCERTAINTY_MEASURE_WITH_UNIT (LENGTH_MEASURE( 1.000000000000000082E-05 ), #264, 'distance_accuracy_value', 'NONE');
#90 = VERTEX_POINT ( 'NONE', #22 ) ;
#91 = CIRCLE ( 'NONE', #110, 1.950000000000000400 ) ;
#92 = CIRCLE ( 'NONE', #42, 0.2000000000000000944 ) ;
#93 = PERSON_AND_ORGANIZATION_ROLE ( 'design_owner' ) ;
#94 = EDGE_LOOP ( 'NONE', ( #208, #229 ) ) ;
#95 = DIRECTION ( 'NONE',  ( -1.000000000000000000, 0.000000000000000000, 0.000000000000000000 ) ) ;
#96 = DIRECTION ( 'NONE',  ( 0.000000000000000000, 0.000000000000000000, 1.000000000000000000 ) ) ;
#97 = AXIS2_PLACEMENT_3D ( 'NONE', #26, #237, #279 ) ;
#98 = LINE ( 'NONE', #215, #8 ) ;
#99 = DIRECTION ( 'NONE',  ( -1.000000000000000000, 1.224646799147353207E-16, 0.000000000000000000 ) ) ;
#100 = DIRECTION ( 'NONE',  ( -0.000000000000000000, -0.000000000000000000, -1.000000000000000000 ) ) ;
#101 = FACE_OUTER_BOUND ( 'NONE', #161, .T. ) ;
#102 = CARTESIAN_POINT ( 'NONE',  ( 1.750000000000000222, 2.143131898507868544E-16, 403.0000000000000000 ) ) ;
#103 = CARTESIAN_POINT ( 'NONE',  ( -3.500000000000000444, 0.000000000000000000, 0.000000000000000000 ) ) ;
#104 = DIRECTION ( 'NONE',  ( 1.000000000000000000, 0.000000000000000000, 0.000000000000000000 ) ) ;
#105 = DATE_AND_TIME ( #7, #255 ) ;
#106 = AXIS2_PLACEMENT_3D ( 'NONE', #186, #285, #213 ) ;
#107 = EDGE_CURVE ( 'NONE', #297, #277, #165, .T. ) ;
#108 = PERSON_AND_ORGANIZATION ( #239, #75 ) ;
#109 = CC_DESIGN_DATE_AND_TIME_ASSIGNMENT ( #248, #131, ( #209 ) ) ;
#110 = AXIS2_PLACEMENT_3D ( 'NONE', #182, #246, #6 ) ;
#111 = ORIENTED_EDGE ( 'NONE', *, *, #227, .T. ) ;
#112 = ORIENTED_EDGE ( 'NONE', *, *, #284, .F. ) ;
#113 = ADVANCED_FACE ( 'NONE', ( #195, #242 ), #170, .T. ) ;
#114 = APPROVAL_DATE_TIME ( #184, #11 ) ;
#115 = ORIENTED_EDGE ( 'NONE', *, *, #227, .F. ) ;
#116 = ORIENTED_EDGE ( 'NONE', *, *, #28, .F. ) ;
#117 = DIRECTION ( 'NONE',  ( -0.000000000000000000, -0.000000000000000000, -1.000000000000000000 ) ) ;
#118 = APPROVAL_ROLE ( '' ) ;
#119 = CARTESIAN_POINT ( 'NONE',  ( -1.750000000000000222, 0.000000000000000000, 403.0000000000000000 ) ) ;
#120 = ADVANCED_FACE ( 'NONE', ( #147 ), #1, .T. ) ;
#121 = CARTESIAN_POINT ( 'NONE',  ( 0.000000000000000000, 0.000000000000000000, 403.0000000000000000 ) ) ;
#122 = DIRECTION ( 'NONE',  ( -1.000000000000000000, 0.000000000000000000, 0.000000000000000000 ) ) ;
#123 = CARTESIAN_POINT ( 'NONE',  ( 0.000000000000000000, 0.000000000000000000, 3.199999999999980638 ) ) ;
#124 = CARTESIAN_POINT ( 'NONE',  ( 0.000000000000000000, 0.000000000000000000, 3.199999999999980638 ) ) ;
#125 = CC_DESIGN_PERSON_AND_ORGANIZATION_ASSIGNMENT ( #108, #37, ( #46 ) ) ;
#126 = AXIS2_PLACEMENT_3D ( 'NONE', #80, #254, #171 ) ;
#127 = CARTESIAN_POINT ( 'NONE',  ( 1.950000000000000400, 0.000000000000000000, 3.199999999999980638 ) ) ;
#128 = EDGE_CURVE ( 'NONE', #234, #205, #134, .T. ) ;
#129 = CALENDAR_DATE ( 2022, 7, 7 ) ;
#130 = CALENDAR_DATE ( 2022, 7, 7 ) ;
#131 = DATE_TIME_ROLE ( 'creation_date' ) ;
#132 = VECTOR ( 'NONE', #117, 1000.000000000000000 ) ;
#133 = EDGE_CURVE ( 'NONE', #179, #158, #262, .T. ) ;
#134 = CIRCLE ( 'NONE', #269, 1.950000000000000400 ) ;
#135 = APPROVAL_DATE_TIME ( #36, #230 ) ;
#136 = ORIENTED_EDGE ( 'NONE', *, *, #107, .F. ) ;
#137 = ADVANCED_FACE ( 'NONE', ( #23 ), #150, .T. ) ;
#138 = APPLICATION_CONTEXT ( 'configuration controlled 3d designs of mechanical parts and assemblies' ) ;
#139 = AXIS2_PLACEMENT_3D ( 'NONE', #304, #146, #95 ) ;
#140 = EDGE_LOOP ( 'NONE', ( #116, #45, #253, #17 ) ) ;
#141 = AXIS2_PLACEMENT_3D ( 'NONE', #260, #27, #214 ) ;
#142 = FACE_OUTER_BOUND ( 'NONE', #140, .T. ) ;
#143 = EDGE_LOOP ( 'NONE', ( #40, #156, #176, #13 ) ) ;
#144 = DIRECTION ( 'NONE',  ( 0.000000000000000000, 0.000000000000000000, 1.000000000000000000 ) ) ;
#145 = CC_DESIGN_PERSON_AND_ORGANIZATION_ASSIGNMENT ( #10, #86, ( #46 ) ) ;
#146 = DIRECTION ( 'NONE',  ( -0.000000000000000000, -0.000000000000000000, -1.000000000000000000 ) ) ;
#147 = FACE_OUTER_BOUND ( 'NONE', #43, .T. ) ;
#148 = CYLINDRICAL_SURFACE ( 'NONE', #67, 1.750000000000000222 ) ;
#149 = DIRECTION ( 'NONE',  ( 0.000000000000000000, 0.000000000000000000, 1.000000000000000000 ) ) ;
#150 = PLANE ( 'NONE',  #141 ) ;
#151 =( NAMED_UNIT ( * ) PLANE_ANGLE_UNIT ( ) SI_UNIT ( $, .RADIAN. ) );
#152 = FACE_OUTER_BOUND ( 'NONE', #224, .T. ) ;
#153 = CARTESIAN_POINT ( 'NONE',  ( 0.000000000000000000, 0.000000000000000000, 403.0000000000000000 ) ) ;
#154 = EDGE_CURVE ( 'NONE', #179, #297, #83, .T. ) ;
#155 = PERSON_AND_ORGANIZATION ( #239, #75 ) ;
#156 = ORIENTED_EDGE ( 'NONE', *, *, #199, .T. ) ;
#157 = EDGE_LOOP ( 'NONE', ( #136, #66, #207, #276 ) ) ;
#158 = VERTEX_POINT ( 'NONE', #236 ) ;
#159 = APPLICATION_PROTOCOL_DEFINITION ( 'international standard', 'config_control_design', 1994, #270 ) ;
#160 = CC_DESIGN_PERSON_AND_ORGANIZATION_ASSIGNMENT ( #200, #84, ( #209 ) ) ;
#161 = EDGE_LOOP ( 'NONE', ( #177, #115, #300, #256 ) ) ;
#162 = DIRECTION ( 'NONE',  ( 1.000000000000000000, 0.000000000000000000, 0.000000000000000000 ) ) ;
#163 = FACE_OUTER_BOUND ( 'NONE', #143, .T. ) ;
#164 = EDGE_CURVE ( 'NONE', #277, #158, #18, .T. ) ;
#165 = LINE ( 'NONE', #102, #132 ) ;
#166 = DIRECTION ( 'NONE',  ( -0.000000000000000000, -0.000000000000000000, -1.000000000000000000 ) ) ;
#167 = DIRECTION ( 'NONE',  ( 1.000000000000000000, 0.000000000000000000, -0.000000000000000000 ) ) ;
#168 = CARTESIAN_POINT ( 'NONE',  ( 1.750000000000000222, 2.143131898507868544E-16, 403.0000000000000000 ) ) ;
#169 = AXIS2_PLACEMENT_3D ( 'NONE', #289, #144, #190 ) ;
#170 = PLANE ( 'NONE',  #204 ) ;
#171 = DIRECTION ( 'NONE',  ( 1.000000000000000000, 0.000000000000000000, 0.000000000000000000 ) ) ;
#172 = COORDINATED_UNIVERSAL_TIME_OFFSET ( 1, 0, .AHEAD. ) ;
#173 = PERSON_AND_ORGANIZATION_ROLE ( 'classification_officer' ) ;
#174 = LOCAL_TIME ( 14, 51, 49.00000000000000000, #271 ) ;
#175 = COORDINATED_UNIVERSAL_TIME_OFFSET ( 1, 0, .AHEAD. ) ;
#176 = ORIENTED_EDGE ( 'NONE', *, *, #284, .T. ) ;
#177 = ORIENTED_EDGE ( 'NONE', *, *, #199, .F. ) ;
#178 = AXIS2_PLACEMENT_3D ( 'NONE', #259, #166, #122 ) ;
#179 = VERTEX_POINT ( 'NONE', #119 ) ;
#180 = ORIENTED_EDGE ( 'NONE', *, *, #64, .F. ) ;
#181 = CIRCLE ( 'NONE', #247, 3.500000000000000444 ) ;
#182 = CARTESIAN_POINT ( 'NONE',  ( 0.000000000000000000, 0.000000000000000000, 3.000000000000000000 ) ) ;
#183 = ORIENTED_EDGE ( 'NONE', *, *, #206, .T. ) ;
#184 = DATE_AND_TIME ( #68, #217 ) ;
#185 = EDGE_CURVE ( 'NONE', #226, #19, #250, .T. ) ;
#186 = CARTESIAN_POINT ( 'NONE',  ( 0.000000000000000000, 0.000000000000000000, 0.000000000000000000 ) ) ;
#187 = CIRCLE ( 'NONE', #193, 1.750000000000000222 ) ;
#188 = APPROVAL_PERSON_ORGANIZATION ( #47, #230, #225 ) ;
#189 = DIRECTION ( 'NONE',  ( -1.000000000000000000, 0.000000000000000000, 0.000000000000000000 ) ) ;
#190 = DIRECTION ( 'NONE',  ( 1.000000000000000000, 0.000000000000000000, 0.000000000000000000 ) ) ;
#191 = DIRECTION ( 'NONE',  ( -1.000000000000000000, 0.000000000000000000, 0.000000000000000000 ) ) ;
#192 = AXIS2_PLACEMENT_3D ( 'NONE', #266, #77, #104 ) ;
#193 = AXIS2_PLACEMENT_3D ( 'NONE', #153, #33, #194 ) ;
#194 = DIRECTION ( 'NONE',  ( 1.000000000000000000, 0.000000000000000000, 0.000000000000000000 ) ) ;
#195 = FACE_BOUND ( 'NONE', #94, .T. ) ;
#196 = ADVANCED_FACE ( 'NONE', ( #163 ), #282, .T. ) ;
#197 = FACE_OUTER_BOUND ( 'NONE', #15, .T. ) ;
#198 = DATE_TIME_ROLE ( 'classification_date' ) ;
#199 = EDGE_CURVE ( 'NONE', #296, #19, #98, .T. ) ;
#200 = PERSON_AND_ORGANIZATION ( #239, #75 ) ;
#201 = SECURITY_CLASSIFICATION_LEVEL ( 'unclassified' ) ;
#202 = CIRCLE ( 'NONE', #192, 3.500000000000000444 ) ;
#203 = ORIENTED_EDGE ( 'NONE', *, *, #133, .F. ) ;
#204 = AXIS2_PLACEMENT_3D ( 'NONE', #238, #96, #167 ) ;
#205 = VERTEX_POINT ( 'NONE', #31 ) ;
#206 = EDGE_CURVE ( 'NONE', #277, #234, #52, .T. ) ;
#207 = ORIENTED_EDGE ( 'NONE', *, *, #133, .T. ) ;
#208 = ORIENTED_EDGE ( 'NONE', *, *, #128, .T. ) ;
#209 = PRODUCT_DEFINITION ( 'NEZNÁMÝ', '', #46, #228 ) ;
#210 = COORDINATED_UNIVERSAL_TIME_OFFSET ( 1, 0, .AHEAD. ) ;
#211 = EDGE_LOOP ( 'NONE', ( #16, #298 ) ) ;
#212 = DIRECTION ( 'NONE',  ( 1.000000000000000000, 0.000000000000000000, 0.000000000000000000 ) ) ;
#213 = DIRECTION ( 'NONE',  ( 1.000000000000000000, 0.000000000000000000, 0.000000000000000000 ) ) ;
#214 = DIRECTION ( 'NONE',  ( 1.000000000000000000, 0.000000000000000000, -0.000000000000000000 ) ) ;
#215 = CARTESIAN_POINT ( 'NONE',  ( 3.500000000000000444, 4.286263797015737088E-16, 3.000000000000000000 ) ) ;
#216 = CARTESIAN_POINT ( 'NONE',  ( 0.000000000000000000, 0.000000000000000000, 403.0000000000000000 ) ) ;
#217 = LOCAL_TIME ( 14, 51, 49.00000000000000000, #210 ) ;
#218 = CARTESIAN_POINT ( 'NONE',  ( 0.000000000000000000, 0.000000000000000000, 3.199999999999980638 ) ) ;
#219 = ADVANCED_FACE ( 'NONE', ( #152 ), #245, .F. ) ;
#220 = CALENDAR_DATE ( 2022, 7, 7 ) ;
#221 = AXIS2_PLACEMENT_3D ( 'NONE', #127, #265, #58 ) ;
#222 = COORDINATED_UNIVERSAL_TIME_OFFSET ( 1, 0, .AHEAD. ) ;
#223 = ADVANCED_FACE ( 'NONE', ( #142 ), #14, .F. ) ;
#224 = EDGE_LOOP ( 'NONE', ( #249, #112 ) ) ;
#225 = APPROVAL_ROLE ( '' ) ;
#226 = VERTEX_POINT ( 'NONE', #103 ) ;
#227 = EDGE_CURVE ( 'NONE', #90, #296, #202, .T. ) ;
#228 = DESIGN_CONTEXT ( 'detailed design', #270, 'design' ) ;
#229 = ORIENTED_EDGE ( 'NONE', *, *, #261, .T. ) ;
#230 = APPROVAL ( #21, 'NEURÈENÝ' ) ;
#231 = EDGE_LOOP ( 'NONE', ( #111, #70 ) ) ;
#232 = CARTESIAN_POINT ( 'NONE',  ( 0.000000000000000000, 0.000000000000000000, 0.000000000000000000 ) ) ;
#233 = CC_DESIGN_DATE_AND_TIME_ASSIGNMENT ( #105, #198, ( #268 ) ) ;
#234 = VERTEX_POINT ( 'NONE', #57 ) ;
#235 = MECHANICAL_CONTEXT ( 'NONE', #138, 'mechanical' ) ;
#236 = CARTESIAN_POINT ( 'NONE',  ( -1.750000000000000222, 0.000000000000000000, 3.199999999999980638 ) ) ;
#237 = DIRECTION ( 'NONE',  ( 0.000000000000000000, 0.000000000000000000, 1.000000000000000000 ) ) ;
#238 = CARTESIAN_POINT ( 'NONE',  ( 0.000000000000000000, 0.000000000000000000, 3.000000000000000000 ) ) ;
#239 = PERSON ( 'NEURÈENÝ', 'NEURÈENÝ', 'NEURÈENÝ', ('NEURÈENÝ'), ('NEURÈENÝ'), ('NEURÈENÝ') ) ;
#240 = DIRECTION ( 'NONE',  ( 0.000000000000000000, 0.000000000000000000, 1.000000000000000000 ) ) ;
#241 = CC_DESIGN_APPROVAL ( #11, ( #268 ) ) ;
#242 = FACE_OUTER_BOUND ( 'NONE', #231, .T. ) ;
#243 = DIRECTION ( 'NONE',  ( 1.000000000000000000, 0.000000000000000000, 0.000000000000000000 ) ) ;
#244 = MANIFOLD_SOLID_BREP ( 'Zaoblit1', #55 ) ;
#245 = PLANE ( 'NONE',  #97 ) ;
#246 = DIRECTION ( 'NONE',  ( -0.000000000000000000, -0.000000000000000000, -1.000000000000000000 ) ) ;
#247 = AXIS2_PLACEMENT_3D ( 'NONE', #25, #79, #74 ) ;
#248 = DATE_AND_TIME ( #220, #174 ) ;
#249 = ORIENTED_EDGE ( 'NONE', *, *, #185, .F. ) ;
#250 = CIRCLE ( 'NONE', #106, 3.500000000000000444 ) ;
#251 = ORIENTED_EDGE ( 'NONE', *, *, #107, .T. ) ;
#252 = DIRECTION ( 'NONE',  ( 0.000000000000000000, 0.000000000000000000, 1.000000000000000000 ) ) ;
#253 = ORIENTED_EDGE ( 'NONE', *, *, #128, .F. ) ;
#254 = DIRECTION ( 'NONE',  ( 0.000000000000000000, 0.000000000000000000, 1.000000000000000000 ) ) ;
#255 = LOCAL_TIME ( 14, 51, 49.00000000000000000, #175 ) ;
#256 = ORIENTED_EDGE ( 'NONE', *, *, #185, .T. ) ;
#257 = DIRECTION ( 'NONE',  ( 0.000000000000000000, 0.000000000000000000, 1.000000000000000000 ) ) ;
#258 = VECTOR ( 'NONE', #76, 1000.000000000000000 ) ;
#259 = CARTESIAN_POINT ( 'NONE',  ( 0.000000000000000000, 0.000000000000000000, 3.000000000000000000 ) ) ;
#260 = CARTESIAN_POINT ( 'NONE',  ( 0.000000000000000000, 0.000000000000000000, 403.0000000000000000 ) ) ;
#261 = EDGE_CURVE ( 'NONE', #205, #234, #91, .T. ) ;
#262 = LINE ( 'NONE', #53, #302 ) ;
#263 = CARTESIAN_POINT ( 'NONE',  ( 0.000000000000000000, 0.000000000000000000, 3.000000000000000000 ) ) ;
#264 =( LENGTH_UNIT ( ) NAMED_UNIT ( * ) SI_UNIT ( .MILLI., .METRE. ) );
#265 = DIRECTION ( 'NONE',  ( 0.000000000000000000, -1.000000000000000000, 0.000000000000000000 ) ) ;
#266 = CARTESIAN_POINT ( 'NONE',  ( 0.000000000000000000, 0.000000000000000000, 3.000000000000000000 ) ) ;
#267 = AXIS2_PLACEMENT_3D ( 'NONE', #123, #2, #162 ) ;
#268 = SECURITY_CLASSIFICATION ( '', '', #201 ) ;
#269 = AXIS2_PLACEMENT_3D ( 'NONE', #263, #283, #56 ) ;
#270 = APPLICATION_CONTEXT ( 'configuration controlled 3d designs of mechanical parts and assemblies' ) ;
#271 = COORDINATED_UNIVERSAL_TIME_OFFSET ( 1, 0, .AHEAD. ) ;
#272 = APPROVAL_STATUS ( 'not_yet_approved' ) ;
#273 = ADVANCED_FACE ( 'NONE', ( #197 ), #286, .F. ) ;
#274 = SHAPE_DEFINITION_REPRESENTATION ( #278, #60 ) ;
#275 = ORIENTED_EDGE ( 'NONE', *, *, #164, .T. ) ;
#276 = ORIENTED_EDGE ( 'NONE', *, *, #28, .T. ) ;
#277 = VERTEX_POINT ( 'NONE', #44 ) ;
#278 = PRODUCT_DEFINITION_SHAPE ( 'NONE', 'NONE',  #209 ) ;
#279 = DIRECTION ( 'NONE',  ( 1.000000000000000000, 0.000000000000000000, -0.000000000000000000 ) ) ;
#280 = AXIS2_PLACEMENT_3D ( 'NONE', #232, #257, #212 ) ;
#281 = APPROVAL_PERSON_ORGANIZATION ( #292, #11, #118 ) ;
#282 = CYLINDRICAL_SURFACE ( 'NONE', #178, 3.500000000000000444 ) ;
#283 = DIRECTION ( 'NONE',  ( -0.000000000000000000, -0.000000000000000000, -1.000000000000000000 ) ) ;
#284 = EDGE_CURVE ( 'NONE', #19, #226, #34, .T. ) ;
#285 = DIRECTION ( 'NONE',  ( 0.000000000000000000, 0.000000000000000000, 1.000000000000000000 ) ) ;
#286 = TOROIDAL_SURFACE ( 'NONE', #267, 1.950000000000000400, 0.2000000000000000111 ) ;
#287 = LINE ( 'NONE', #72, #258 ) ;
#288 = CARTESIAN_POINT ( 'NONE',  ( 3.500000000000000444, 4.286263797015737088E-16, 3.000000000000000000 ) ) ;
#289 = CARTESIAN_POINT ( 'NONE',  ( 0.000000000000000000, 0.000000000000000000, 403.0000000000000000 ) ) ;
#290 = ADVANCED_FACE ( 'NONE', ( #101 ), #50, .T. ) ;
#291 = PRODUCT_RELATED_PRODUCT_CATEGORY ( 'detail', '', ( #20 ) ) ;
#292 = PERSON_AND_ORGANIZATION ( #239, #75 ) ;
#293 = PERSON_AND_ORGANIZATION ( #239, #75 ) ;
#294 = APPROVAL_ROLE ( '' ) ;
#295 = EDGE_CURVE ( 'NONE', #297, #179, #187, .T. ) ;
#296 = VERTEX_POINT ( 'NONE', #288 ) ;
#297 = VERTEX_POINT ( 'NONE', #168 ) ;
#298 = ORIENTED_EDGE ( 'NONE', *, *, #295, .T. ) ;
#299 = CC_DESIGN_APPROVAL ( #87, ( #46 ) ) ;
#300 = ORIENTED_EDGE ( 'NONE', *, *, #81, .T. ) ;
#301 = PERSON_AND_ORGANIZATION ( #239, #75 ) ;
#302 = VECTOR ( 'NONE', #73, 1000.000000000000000 ) ;
#303 = ORIENTED_EDGE ( 'NONE', *, *, #261, .F. ) ;
#304 = CARTESIAN_POINT ( 'NONE',  ( 0.000000000000000000, 0.000000000000000000, 3.000000000000000000 ) ) ;
#305 = DIRECTION ( 'NONE',  ( 1.000000000000000000, 0.000000000000000000, 0.000000000000000000 ) ) ;
#306 = CARTESIAN_POINT ( 'NONE',  ( 0.000000000000000000, 0.000000000000000000, 3.199999999999980638 ) ) ;
#307 = FACE_OUTER_BOUND ( 'NONE', #157, .T. ) ;
ENDSEC;
END-ISO-10303-21;
