ISO-10303-21;
HEADER;
FILE_DESCRIPTION (( 'STEP AP203' ),
    '1' );
FILE_NAME ('cce6.STEP',
    '2023-02-12T12:01:00',
    ( '' ),
    ( '' ),
    'SwSTEP 2.0',
    'SolidWorks 2019',
    '' );
FILE_SCHEMA (( 'CONFIG_CONTROL_DESIGN' ));
ENDSEC;

DATA;
#1 = DIRECTION ( 'NONE',  ( 0.000000000000000000, 0.000000000000000000, 1.000000000000000000 ) ) ;
#2 = ADVANCED_BREP_SHAPE_REPRESENTATION ( 'cce6', ( #82, #163 ), #222 ) ;
#3 = DIRECTION ( 'NONE',  ( -0.000000000000000000, -0.000000000000000000, -1.000000000000000000 ) ) ;
#4 = VECTOR ( 'NONE', #56, 1000.000000000000000 ) ;
#5 = DIRECTION ( 'NONE',  ( -1.000000000000000000, 0.000000000000000000, 0.000000000000000000 ) ) ;
#6 = VERTEX_POINT ( 'NONE', #218 ) ;
#7 = PERSON_AND_ORGANIZATION ( #174, #100 ) ;
#8 = CIRCLE ( 'NONE', #76, 2.100000000000000089 ) ;
#9 = ORIENTED_EDGE ( 'NONE', *, *, #101, .F. ) ;
#10 = DIRECTION ( 'NONE',  ( 1.000000000000000000, 0.000000000000000000, 0.000000000000000000 ) ) ;
#11 = DATE_TIME_ROLE ( 'creation_date' ) ;
#12 = DIRECTION ( 'NONE',  ( -1.000000000000000000, 0.000000000000000000, 0.000000000000000000 ) ) ;
#13 = AXIS2_PLACEMENT_3D ( 'NONE', #70, #233, #63 ) ;
#14 = ADVANCED_FACE ( 'NONE', ( #115 ), #198, .F. ) ;
#15 = PERSON_AND_ORGANIZATION ( #174, #100 ) ;
#16 = APPROVAL_DATE_TIME ( #160, #202 ) ;
#17 = ORIENTED_EDGE ( 'NONE', *, *, #22, .F. ) ;
#18 = VERTEX_POINT ( 'NONE', #141 ) ;
#19 = DATE_AND_TIME ( #226, #184 ) ;
#20 = PLANE ( 'NONE',  #208 ) ;
#21 = CARTESIAN_POINT ( 'NONE',  ( 4.000000000000000000, 4.898587196589412829E-16, 3.000000000000000000 ) ) ;
#22 = EDGE_CURVE ( 'NONE', #33, #18, #190, .T. ) ;
#23 = CIRCLE ( 'NONE', #126, 4.000000000000000000 ) ;
#24 = ORIENTED_EDGE ( 'NONE', *, *, #176, .F. ) ;
#25 = COORDINATED_UNIVERSAL_TIME_OFFSET ( 1, 0, .AHEAD. ) ;
#26 = ORIENTED_EDGE ( 'NONE', *, *, #203, .F. ) ;
#27 = APPROVAL ( #171, 'NEURÈENÝ' ) ;
#28 = DIRECTION ( 'NONE',  ( 0.000000000000000000, 0.000000000000000000, 1.000000000000000000 ) ) ;
#29 = PERSON_AND_ORGANIZATION ( #174, #100 ) ;
#30 = ADVANCED_FACE ( 'NONE', ( #189 ), #37, .T. ) ;
#31 = ORIENTED_EDGE ( 'NONE', *, *, #90, .T. ) ;
#32 = SECURITY_CLASSIFICATION ( '', '', #84 ) ;
#33 = VERTEX_POINT ( 'NONE', #224 ) ;
#34 = DESIGN_CONTEXT ( 'detailed design', #142, 'design' ) ;
#35 = AXIS2_PLACEMENT_3D ( 'NONE', #180, #254, #220 ) ;
#36 = CIRCLE ( 'NONE', #88, 2.100000000000000089 ) ;
#37 = CYLINDRICAL_SURFACE ( 'NONE', #199, 2.100000000000000089 ) ;
#38 = DIRECTION ( 'NONE',  ( 1.000000000000000000, 0.000000000000000000, -0.000000000000000000 ) ) ;
#39 =( LENGTH_UNIT ( ) NAMED_UNIT ( * ) SI_UNIT ( .MILLI., .METRE. ) );
#40 = AXIS2_PLACEMENT_3D ( 'NONE', #139, #83, #243 ) ;
#41 = LOCAL_TIME ( 13, 1, 0.000000000000000000, #71 ) ;
#42 = APPLICATION_PROTOCOL_DEFINITION ( 'international standard', 'config_control_design', 1994, #128 ) ;
#43 = CC_DESIGN_PERSON_AND_ORGANIZATION_ASSIGNMENT ( #231, #249, ( #246 ) ) ;
#44 = DIRECTION ( 'NONE',  ( 0.000000000000000000, 0.000000000000000000, 1.000000000000000000 ) ) ;
#45 = DIRECTION ( 'NONE',  ( 1.000000000000000000, 0.000000000000000000, -0.000000000000000000 ) ) ;
#46 = CARTESIAN_POINT ( 'NONE',  ( -2.100000000000000089, 0.000000000000000000, 3.000000000000000000 ) ) ;
#47 = CC_DESIGN_APPROVAL ( #239, ( #246 ) ) ;
#48 = DIRECTION ( 'NONE',  ( 1.000000000000000000, 0.000000000000000000, 0.000000000000000000 ) ) ;
#49 = EDGE_LOOP ( 'NONE', ( #17, #148, #57, #195 ) ) ;
#50 = ORIENTED_EDGE ( 'NONE', *, *, #123, .T. ) ;
#51 = VERTEX_POINT ( 'NONE', #187 ) ;
#52 = ADVANCED_FACE ( 'NONE', ( #244 ), #20, .T. ) ;
#53 = CARTESIAN_POINT ( 'NONE',  ( 2.100000000000000089, 2.571758278209441957E-16, 3.000000000000000000 ) ) ;
#54 = PERSON_AND_ORGANIZATION_ROLE ( 'creator' ) ;
#55 = DIRECTION ( 'NONE',  ( 1.000000000000000000, 0.000000000000000000, 0.000000000000000000 ) ) ;
#56 = DIRECTION ( 'NONE',  ( -0.000000000000000000, -0.000000000000000000, -1.000000000000000000 ) ) ;
#57 = ORIENTED_EDGE ( 'NONE', *, *, #173, .T. ) ;
#58 = VECTOR ( 'NONE', #3, 1000.000000000000000 ) ;
#59 = DIRECTION ( 'NONE',  ( -0.000000000000000000, -0.000000000000000000, -1.000000000000000000 ) ) ;
#60 = DIRECTION ( 'NONE',  ( -1.000000000000000000, 0.000000000000000000, 0.000000000000000000 ) ) ;
#61 = COORDINATED_UNIVERSAL_TIME_OFFSET ( 1, 0, .AHEAD. ) ;
#62 = EDGE_CURVE ( 'NONE', #51, #201, #185, .T. ) ;
#63 = DIRECTION ( 'NONE',  ( 1.000000000000000000, 0.000000000000000000, 0.000000000000000000 ) ) ;
#64 = CARTESIAN_POINT ( 'NONE',  ( 0.000000000000000000, 0.000000000000000000, 160.0000000000000000 ) ) ;
#65 = DIRECTION ( 'NONE',  ( -0.000000000000000000, -0.000000000000000000, -1.000000000000000000 ) ) ;
#66 = CARTESIAN_POINT ( 'NONE',  ( 0.000000000000000000, 0.000000000000000000, 0.000000000000000000 ) ) ;
#67 = APPROVAL_DATE_TIME ( #217, #239 ) ;
#68 = ORIENTED_EDGE ( 'NONE', *, *, #101, .T. ) ;
#69 = MECHANICAL_CONTEXT ( 'NONE', #128, 'mechanical' ) ;
#70 = CARTESIAN_POINT ( 'NONE',  ( 0.000000000000000000, 0.000000000000000000, 160.0000000000000000 ) ) ;
#71 = COORDINATED_UNIVERSAL_TIME_OFFSET ( 1, 0, .AHEAD. ) ;
#72 = ORIENTED_EDGE ( 'NONE', *, *, #123, .F. ) ;
#73 = APPROVAL_ROLE ( '' ) ;
#74 = DIRECTION ( 'NONE',  ( 0.000000000000000000, 0.000000000000000000, 1.000000000000000000 ) ) ;
#75 = CARTESIAN_POINT ( 'NONE',  ( 0.000000000000000000, 0.000000000000000000, 0.000000000000000000 ) ) ;
#76 = AXIS2_PLACEMENT_3D ( 'NONE', #119, #140, #10 ) ;
#77 = ORIENTED_EDGE ( 'NONE', *, *, #223, .F. ) ;
#78 = ADVANCED_FACE ( 'NONE', ( #85, #166 ), #120, .T. ) ;
#79 = ADVANCED_FACE ( 'NONE', ( #242 ), #182, .T. ) ;
#80 = PRODUCT_DEFINITION_FORMATION_WITH_SPECIFIED_SOURCE ( 'LIBOVOLNÝ', '', #206, .NOT_KNOWN. ) ;
#81 = DIRECTION ( 'NONE',  ( 0.000000000000000000, 0.000000000000000000, 1.000000000000000000 ) ) ;
#82 = MANIFOLD_SOLID_BREP ( 'Pøidat vysunutím3', #211 ) ;
#83 = DIRECTION ( 'NONE',  ( 0.000000000000000000, 0.000000000000000000, 1.000000000000000000 ) ) ;
#84 = SECURITY_CLASSIFICATION_LEVEL ( 'unclassified' ) ;
#85 = FACE_BOUND ( 'NONE', #93, .T. ) ;
#86 = AXIS2_PLACEMENT_3D ( 'NONE', #122, #210, #5 ) ;
#87 = APPLICATION_PROTOCOL_DEFINITION ( 'international standard', 'config_control_design', 1994, #142 ) ;
#88 = AXIS2_PLACEMENT_3D ( 'NONE', #149, #28, #111 ) ;
#89 = ORIENTED_EDGE ( 'NONE', *, *, #138, .F. ) ;
#90 = EDGE_CURVE ( 'NONE', #18, #102, #207, .T. ) ;
#91 = COORDINATED_UNIVERSAL_TIME_OFFSET ( 1, 0, .AHEAD. ) ;
#92 = PERSON_AND_ORGANIZATION ( #174, #100 ) ;
#93 = EDGE_LOOP ( 'NONE', ( #26, #24 ) ) ;
#94 = ORIENTED_EDGE ( 'NONE', *, *, #62, .F. ) ;
#95 = PRODUCT_RELATED_PRODUCT_CATEGORY ( 'detail', '', ( #206 ) ) ;
#96 = CARTESIAN_POINT ( 'NONE',  ( 2.100000000000000089, 2.571758278209441957E-16, 160.0000000000000000 ) ) ;
#97 = CARTESIAN_POINT ( 'NONE',  ( 0.000000000000000000, 0.000000000000000000, 160.0000000000000000 ) ) ;
#98 = DIRECTION ( 'NONE',  ( -1.000000000000000000, 0.000000000000000000, 0.000000000000000000 ) ) ;
#99 = CARTESIAN_POINT ( 'NONE',  ( 0.000000000000000000, 0.000000000000000000, 3.000000000000000000 ) ) ;
#100 = ORGANIZATION ( 'NEURÈENÝ', 'NEURÈENÝ', '' ) ;
#101 = EDGE_CURVE ( 'NONE', #18, #33, #124, .T. ) ;
#102 = VERTEX_POINT ( 'NONE', #143 ) ;
#103 = APPROVAL_DATE_TIME ( #235, #27 ) ;
#104 = AXIS2_PLACEMENT_3D ( 'NONE', #144, #227, #45 ) ;
#105 = ORIENTED_EDGE ( 'NONE', *, *, #203, .T. ) ;
#106 = EDGE_CURVE ( 'NONE', #156, #232, #234, .T. ) ;
#107 = CC_DESIGN_SECURITY_CLASSIFICATION ( #32, ( #80 ) ) ;
#108 = ORIENTED_EDGE ( 'NONE', *, *, #176, .T. ) ;
#109 = CYLINDRICAL_SURFACE ( 'NONE', #118, 4.000000000000000000 ) ;
#110 = CALENDAR_DATE ( 2023, 12, 2 ) ;
#111 = DIRECTION ( 'NONE',  ( 1.000000000000000000, 0.000000000000000000, 0.000000000000000000 ) ) ;
#112 = PERSON_AND_ORGANIZATION_ROLE ( 'design_supplier' ) ;
#113 = SHAPE_DEFINITION_REPRESENTATION ( #158, #2 ) ;
#114 = CC_DESIGN_APPROVAL ( #27, ( #80 ) ) ;
#115 = FACE_OUTER_BOUND ( 'NONE', #161, .T. ) ;
#116 = APPROVAL_ROLE ( '' ) ;
#117 = ORIENTED_EDGE ( 'NONE', *, *, #106, .T. ) ;
#118 = AXIS2_PLACEMENT_3D ( 'NONE', #197, #134, #60 ) ;
#119 = CARTESIAN_POINT ( 'NONE',  ( 0.000000000000000000, 0.000000000000000000, 3.000000000000000000 ) ) ;
#120 = PLANE ( 'NONE',  #104 ) ;
#121 = LOCAL_TIME ( 13, 1, 0.000000000000000000, #25 ) ;
#122 = CARTESIAN_POINT ( 'NONE',  ( 0.000000000000000000, 0.000000000000000000, 3.000000000000000000 ) ) ;
#123 = EDGE_CURVE ( 'NONE', #51, #156, #162, .T. ) ;
#124 = CIRCLE ( 'NONE', #40, 4.000000000000000000 ) ;
#125 =( NAMED_UNIT ( * ) SI_UNIT ( $, .STERADIAN. ) SOLID_ANGLE_UNIT ( ) );
#126 = AXIS2_PLACEMENT_3D ( 'NONE', #216, #74, #55 ) ;
#127 = EDGE_LOOP ( 'NONE', ( #94, #77, #117, #105 ) ) ;
#128 = APPLICATION_CONTEXT ( 'configuration controlled 3d designs of mechanical parts and assemblies' ) ;
#129 = ORIENTED_EDGE ( 'NONE', *, *, #223, .T. ) ;
#130 = COORDINATED_UNIVERSAL_TIME_OFFSET ( 1, 0, .AHEAD. ) ;
#131 = EDGE_LOOP ( 'NONE', ( #72, #151, #108, #132 ) ) ;
#132 = ORIENTED_EDGE ( 'NONE', *, *, #106, .F. ) ;
#133 = PERSON_AND_ORGANIZATION_ROLE ( 'design_owner' ) ;
#134 = DIRECTION ( 'NONE',  ( -0.000000000000000000, -0.000000000000000000, -1.000000000000000000 ) ) ;
#135 = PERSON_AND_ORGANIZATION ( #174, #100 ) ;
#136 = ORIENTED_EDGE ( 'NONE', *, *, #22, .T. ) ;
#137 = CYLINDRICAL_SURFACE ( 'NONE', #152, 2.100000000000000089 ) ;
#138 = EDGE_CURVE ( 'NONE', #102, #6, #255, .T. ) ;
#139 = CARTESIAN_POINT ( 'NONE',  ( 0.000000000000000000, 0.000000000000000000, 3.000000000000000000 ) ) ;
#140 = DIRECTION ( 'NONE',  ( 0.000000000000000000, 0.000000000000000000, 1.000000000000000000 ) ) ;
#141 = CARTESIAN_POINT ( 'NONE',  ( -4.000000000000000000, 0.000000000000000000, 3.000000000000000000 ) ) ;
#142 = APPLICATION_CONTEXT ( 'configuration controlled 3d designs of mechanical parts and assemblies' ) ;
#143 = CARTESIAN_POINT ( 'NONE',  ( -4.000000000000000000, 0.000000000000000000, 0.000000000000000000 ) ) ;
#144 = CARTESIAN_POINT ( 'NONE',  ( 0.000000000000000000, 0.000000000000000000, 3.000000000000000000 ) ) ;
#145 = CC_DESIGN_PERSON_AND_ORGANIZATION_ASSIGNMENT ( #7, #112, ( #80 ) ) ;
#146 = LOCAL_TIME ( 13, 1, 0.000000000000000000, #91 ) ;
#147 = CARTESIAN_POINT ( 'NONE',  ( -2.100000000000000089, 0.000000000000000000, 160.0000000000000000 ) ) ;
#148 = ORIENTED_EDGE ( 'NONE', *, *, #186, .T. ) ;
#149 = CARTESIAN_POINT ( 'NONE',  ( 0.000000000000000000, 0.000000000000000000, 3.000000000000000000 ) ) ;
#150 = PERSON_AND_ORGANIZATION ( #174, #100 ) ;
#151 = ORIENTED_EDGE ( 'NONE', *, *, #62, .T. ) ;
#152 = AXIS2_PLACEMENT_3D ( 'NONE', #97, #248, #12 ) ;
#153 = CALENDAR_DATE ( 2023, 12, 2 ) ;
#154 = CC_DESIGN_PERSON_AND_ORGANIZATION_ASSIGNMENT ( #150, #133, ( #206 ) ) ;
#155 = DATE_TIME_ROLE ( 'classification_date' ) ;
#156 = VERTEX_POINT ( 'NONE', #178 ) ;
#157 = APPROVAL_PERSON_ORGANIZATION ( #135, #202, #116 ) ;
#158 = PRODUCT_DEFINITION_SHAPE ( 'NONE', 'NONE',  #246 ) ;
#159 = FACE_OUTER_BOUND ( 'NONE', #49, .T. ) ;
#160 = DATE_AND_TIME ( #250, #41 ) ;
#161 = EDGE_LOOP ( 'NONE', ( #89, #236 ) ) ;
#162 = CIRCLE ( 'NONE', #229, 2.100000000000000089 ) ;
#163 = AXIS2_PLACEMENT_3D ( 'NONE', #66, #228, #48 ) ;
#164 = CARTESIAN_POINT ( 'NONE',  ( 0.000000000000000000, 0.000000000000000000, 160.0000000000000000 ) ) ;
#165 = ADVANCED_FACE ( 'NONE', ( #159 ), #109, .T. ) ;
#166 = FACE_OUTER_BOUND ( 'NONE', #247, .T. ) ;
#167 = CARTESIAN_POINT ( 'NONE',  ( -4.000000000000000000, 0.000000000000000000, 3.000000000000000000 ) ) ;
#168 = CALENDAR_DATE ( 2023, 12, 2 ) ;
#169 = PERSON_AND_ORGANIZATION ( #174, #100 ) ;
#170 = EDGE_LOOP ( 'NONE', ( #129, #50 ) ) ;
#171 = APPROVAL_STATUS ( 'not_yet_approved' ) ;
#172 = ORIENTED_EDGE ( 'NONE', *, *, #138, .T. ) ;
#173 = EDGE_CURVE ( 'NONE', #6, #102, #23, .T. ) ;
#174 = PERSON ( 'NEURÈENÝ', 'NEURÈENÝ', 'NEURÈENÝ', ('NEURÈENÝ'), ('NEURÈENÝ'), ('NEURÈENÝ') ) ;
#175 = APPROVAL_ROLE ( '' ) ;
#176 = EDGE_CURVE ( 'NONE', #201, #232, #8, .T. ) ;
#177 = CIRCLE ( 'NONE', #13, 2.100000000000000089 ) ;
#178 = CARTESIAN_POINT ( 'NONE',  ( -2.100000000000000089, 0.000000000000000000, 160.0000000000000000 ) ) ;
#179 = AXIS2_PLACEMENT_3D ( 'NONE', #99, #81, #204 ) ;
#180 = CARTESIAN_POINT ( 'NONE',  ( 0.000000000000000000, 0.000000000000000000, 0.000000000000000000 ) ) ;
#181 = CARTESIAN_POINT ( 'NONE',  ( 0.000000000000000000, 0.000000000000000000, 160.0000000000000000 ) ) ;
#182 = CYLINDRICAL_SURFACE ( 'NONE', #86, 4.000000000000000000 ) ;
#183 = AXIS2_PLACEMENT_3D ( 'NONE', #75, #219, #251 ) ;
#184 = LOCAL_TIME ( 13, 1, 0.000000000000000000, #61 ) ;
#185 = LINE ( 'NONE', #96, #58 ) ;
#186 = EDGE_CURVE ( 'NONE', #33, #6, #205, .T. ) ;
#187 = CARTESIAN_POINT ( 'NONE',  ( 2.100000000000000089, 2.571758278209441957E-16, 160.0000000000000000 ) ) ;
#188 = PERSON_AND_ORGANIZATION_ROLE ( 'classification_officer' ) ;
#189 = FACE_OUTER_BOUND ( 'NONE', #127, .T. ) ;
#190 = CIRCLE ( 'NONE', #179, 4.000000000000000000 ) ;
#191 = CC_DESIGN_APPROVAL ( #202, ( #32 ) ) ;
#192 = CC_DESIGN_DATE_AND_TIME_ASSIGNMENT ( #193, #11, ( #246 ) ) ;
#193 = DATE_AND_TIME ( #110, #196 ) ;
#194 = FACE_OUTER_BOUND ( 'NONE', #131, .T. ) ;
#195 = ORIENTED_EDGE ( 'NONE', *, *, #90, .F. ) ;
#196 = LOCAL_TIME ( 13, 1, 0.000000000000000000, #130 ) ;
#197 = CARTESIAN_POINT ( 'NONE',  ( 0.000000000000000000, 0.000000000000000000, 3.000000000000000000 ) ) ;
#198 = PLANE ( 'NONE',  #35 ) ;
#199 = AXIS2_PLACEMENT_3D ( 'NONE', #64, #65, #98 ) ;
#200 = ORIENTED_EDGE ( 'NONE', *, *, #186, .F. ) ;
#201 = VERTEX_POINT ( 'NONE', #53 ) ;
#202 = APPROVAL ( #237, 'NEURÈENÝ' ) ;
#203 = EDGE_CURVE ( 'NONE', #232, #201, #36, .T. ) ;
#204 = DIRECTION ( 'NONE',  ( 1.000000000000000000, 0.000000000000000000, 0.000000000000000000 ) ) ;
#205 = LINE ( 'NONE', #21, #4 ) ;
#206 = PRODUCT ( 'cce6', 'cce6', '', ( #69 ) ) ;
#207 = LINE ( 'NONE', #167, #240 ) ;
#208 = AXIS2_PLACEMENT_3D ( 'NONE', #164, #1, #38 ) ;
#209 =( NAMED_UNIT ( * ) PLANE_ANGLE_UNIT ( ) SI_UNIT ( $, .RADIAN. ) );
#210 = DIRECTION ( 'NONE',  ( -0.000000000000000000, -0.000000000000000000, -1.000000000000000000 ) ) ;
#211 = CLOSED_SHELL ( 'NONE', ( #221, #165, #79, #78, #14, #30, #52 ) ) ;
#212 = DIRECTION ( 'NONE',  ( -0.000000000000000000, -0.000000000000000000, -1.000000000000000000 ) ) ;
#213 = EDGE_LOOP ( 'NONE', ( #200, #9, #31, #172 ) ) ;
#214 = CC_DESIGN_PERSON_AND_ORGANIZATION_ASSIGNMENT ( #92, #54, ( #80 ) ) ;
#215 = APPROVAL_STATUS ( 'not_yet_approved' ) ;
#216 = CARTESIAN_POINT ( 'NONE',  ( 0.000000000000000000, 0.000000000000000000, 0.000000000000000000 ) ) ;
#217 = DATE_AND_TIME ( #168, #146 ) ;
#218 = CARTESIAN_POINT ( 'NONE',  ( 4.000000000000000000, 4.898587196589412829E-16, 0.000000000000000000 ) ) ;
#219 = DIRECTION ( 'NONE',  ( 0.000000000000000000, 0.000000000000000000, 1.000000000000000000 ) ) ;
#220 = DIRECTION ( 'NONE',  ( 1.000000000000000000, 0.000000000000000000, -0.000000000000000000 ) ) ;
#221 = ADVANCED_FACE ( 'NONE', ( #194 ), #137, .T. ) ;
#222 =( GEOMETRIC_REPRESENTATION_CONTEXT ( 3 ) GLOBAL_UNCERTAINTY_ASSIGNED_CONTEXT ( ( #238 ) ) GLOBAL_UNIT_ASSIGNED_CONTEXT ( ( #39, #209, #125 ) ) REPRESENTATION_CONTEXT ( 'NONE', 'WORKASPACE' ) );
#223 = EDGE_CURVE ( 'NONE', #156, #51, #177, .T. ) ;
#224 = CARTESIAN_POINT ( 'NONE',  ( 4.000000000000000000, 4.898587196589412829E-16, 3.000000000000000000 ) ) ;
#225 = DIRECTION ( 'NONE',  ( 1.000000000000000000, 0.000000000000000000, 0.000000000000000000 ) ) ;
#226 = CALENDAR_DATE ( 2023, 12, 2 ) ;
#227 = DIRECTION ( 'NONE',  ( 0.000000000000000000, 0.000000000000000000, 1.000000000000000000 ) ) ;
#228 = DIRECTION ( 'NONE',  ( 0.000000000000000000, 0.000000000000000000, 1.000000000000000000 ) ) ;
#229 = AXIS2_PLACEMENT_3D ( 'NONE', #181, #44, #225 ) ;
#230 = APPROVAL_PERSON_ORGANIZATION ( #29, #27, #73 ) ;
#231 = PERSON_AND_ORGANIZATION ( #174, #100 ) ;
#232 = VERTEX_POINT ( 'NONE', #46 ) ;
#233 = DIRECTION ( 'NONE',  ( 0.000000000000000000, 0.000000000000000000, 1.000000000000000000 ) ) ;
#234 = LINE ( 'NONE', #147, #252 ) ;
#235 = DATE_AND_TIME ( #153, #121 ) ;
#236 = ORIENTED_EDGE ( 'NONE', *, *, #173, .F. ) ;
#237 = APPROVAL_STATUS ( 'not_yet_approved' ) ;
#238 = UNCERTAINTY_MEASURE_WITH_UNIT (LENGTH_MEASURE( 1.000000000000000082E-05 ), #39, 'distance_accuracy_value', 'NONE');
#239 = APPROVAL ( #215, 'NEURÈENÝ' ) ;
#240 = VECTOR ( 'NONE', #59, 1000.000000000000000 ) ;
#241 = APPROVAL_PERSON_ORGANIZATION ( #169, #239, #175 ) ;
#242 = FACE_OUTER_BOUND ( 'NONE', #213, .T. ) ;
#243 = DIRECTION ( 'NONE',  ( 1.000000000000000000, 0.000000000000000000, 0.000000000000000000 ) ) ;
#244 = FACE_OUTER_BOUND ( 'NONE', #170, .T. ) ;
#245 = CC_DESIGN_PERSON_AND_ORGANIZATION_ASSIGNMENT ( #15, #188, ( #32 ) ) ;
#246 = PRODUCT_DEFINITION ( 'NEZNÁMÝ', '', #80, #34 ) ;
#247 = EDGE_LOOP ( 'NONE', ( #68, #136 ) ) ;
#248 = DIRECTION ( 'NONE',  ( -0.000000000000000000, -0.000000000000000000, -1.000000000000000000 ) ) ;
#249 = PERSON_AND_ORGANIZATION_ROLE ( 'creator' ) ;
#250 = CALENDAR_DATE ( 2023, 12, 2 ) ;
#251 = DIRECTION ( 'NONE',  ( 1.000000000000000000, 0.000000000000000000, 0.000000000000000000 ) ) ;
#252 = VECTOR ( 'NONE', #212, 1000.000000000000000 ) ;
#253 = CC_DESIGN_DATE_AND_TIME_ASSIGNMENT ( #19, #155, ( #32 ) ) ;
#254 = DIRECTION ( 'NONE',  ( 0.000000000000000000, 0.000000000000000000, 1.000000000000000000 ) ) ;
#255 = CIRCLE ( 'NONE', #183, 4.000000000000000000 ) ;
ENDSEC;
END-ISO-10303-21;
