ISO-10303-21;
HEADER;
FILE_DESCRIPTION (( 'STEP AP203' ),
    '1' );
FILE_NAME ('f4de.STEP',
    '2022-07-07T12:20:19',
    ( '' ),
    ( '' ),
    'SwSTEP 2.0',
    'SolidWorks 2019',
    '' );
FILE_SCHEMA (( 'CONFIG_CONTROL_DESIGN' ));
ENDSEC;

DATA;
#1 = CARTESIAN_POINT ( 'NONE',  ( -8.000000000000000000, 0.000000000000000000, 507.0000000000000000 ) ) ;
#2 = PLANE ( 'NONE',  #253 ) ;
#3 = EDGE_CURVE ( 'NONE', #120, #303, #73, .T. ) ;
#4 = ORIENTED_EDGE ( 'NONE', *, *, #115, .T. ) ;
#5 = DESIGN_CONTEXT ( 'detailed design', #169, 'design' ) ;
#6 = DIRECTION ( 'NONE',  ( -0.000000000000000000, -0.000000000000000000, -1.000000000000000000 ) ) ;
#7 = CARTESIAN_POINT ( 'NONE',  ( 0.000000000000000000, 0.000000000000000000, 7.000000000000000000 ) ) ;
#8 = LOCAL_TIME ( 14, 20, 19.00000000000000000, #17 ) ;
#9 = UNCERTAINTY_MEASURE_WITH_UNIT (LENGTH_MEASURE( 1.000000000000000082E-05 ), #251, 'distance_accuracy_value', 'NONE');
#10 = DIRECTION ( 'NONE',  ( 1.000000000000000000, 0.000000000000000000, 0.000000000000000000 ) ) ;
#11 = CALENDAR_DATE ( 2022, 7, 7 ) ;
#12 = DIRECTION ( 'NONE',  ( -0.000000000000000000, -0.000000000000000000, -1.000000000000000000 ) ) ;
#13 = APPROVAL_STATUS ( 'not_yet_approved' ) ;
#14 = FACE_OUTER_BOUND ( 'NONE', #144, .T. ) ;
#15 = CIRCLE ( 'NONE', #231, 11.00000000000000000 ) ;
#16 = MECHANICAL_CONTEXT ( 'NONE', #138, 'mechanical' ) ;
#17 = COORDINATED_UNIVERSAL_TIME_OFFSET ( 1, 0, .AHEAD. ) ;
#18 = AXIS2_PLACEMENT_3D ( 'NONE', #166, #50, #48 ) ;
#19 = EDGE_CURVE ( 'NONE', #46, #98, #163, .T. ) ;
#20 = DIRECTION ( 'NONE',  ( -0.000000000000000000, -0.000000000000000000, -1.000000000000000000 ) ) ;
#21 = AXIS2_PLACEMENT_3D ( 'NONE', #122, #72, #282 ) ;
#22 = EDGE_CURVE ( 'NONE', #98, #262, #111, .T. ) ;
#23 = DIRECTION ( 'NONE',  ( 1.224646799147353207E-16, 1.000000000000000000, -0.000000000000000000 ) ) ;
#24 = ORIENTED_EDGE ( 'NONE', *, *, #102, .F. ) ;
#25 = ORIENTED_EDGE ( 'NONE', *, *, #95, .F. ) ;
#26 = APPROVAL ( #270, 'NEURÈENÝ' ) ;
#27 = APPROVAL_PERSON_ORGANIZATION ( #183, #81, #275 ) ;
#28 = ORIENTED_EDGE ( 'NONE', *, *, #281, .F. ) ;
#29 = DIRECTION ( 'NONE',  ( -0.000000000000000000, -0.000000000000000000, -1.000000000000000000 ) ) ;
#30 = DIRECTION ( 'NONE',  ( 0.000000000000000000, 0.000000000000000000, 1.000000000000000000 ) ) ;
#31 = APPROVAL_DATE_TIME ( #243, #26 ) ;
#32 = EDGE_CURVE ( 'NONE', #76, #54, #67, .T. ) ;
#33 = CARTESIAN_POINT ( 'NONE',  ( 8.000000000000000000, 9.797174393178825657E-16, 7.199999999999984190 ) ) ;
#34 = SECURITY_CLASSIFICATION ( '', '', #175 ) ;
#35 = MANIFOLD_SOLID_BREP ( 'Zaoblit1', #209 ) ;
#36 = PERSON_AND_ORGANIZATION_ROLE ( 'creator' ) ;
#37 = FACE_OUTER_BOUND ( 'NONE', #140, .T. ) ;
#38 = DIRECTION ( 'NONE',  ( 0.000000000000000000, 0.000000000000000000, 1.000000000000000000 ) ) ;
#39 = EDGE_CURVE ( 'NONE', #101, #54, #234, .T. ) ;
#40 =( NAMED_UNIT ( * ) SI_UNIT ( $, .STERADIAN. ) SOLID_ANGLE_UNIT ( ) );
#41 = APPROVAL_PERSON_ORGANIZATION ( #109, #26, #83 ) ;
#42 = ORIENTED_EDGE ( 'NONE', *, *, #3, .F. ) ;
#43 = PRODUCT_DEFINITION_SHAPE ( 'NONE', 'NONE',  #134 ) ;
#44 = EDGE_CURVE ( 'NONE', #159, #120, #147, .T. ) ;
#45 = ORIENTED_EDGE ( 'NONE', *, *, #200, .F. ) ;
#46 = VERTEX_POINT ( 'NONE', #216 ) ;
#47 = ADVANCED_FACE ( 'NONE', ( #116 ), #239, .F. ) ;
#48 = DIRECTION ( 'NONE',  ( 1.000000000000000000, 0.000000000000000000, 0.000000000000000000 ) ) ;
#49 = AXIS2_PLACEMENT_3D ( 'NONE', #192, #261, #143 ) ;
#50 = DIRECTION ( 'NONE',  ( 0.000000000000000000, 0.000000000000000000, 1.000000000000000000 ) ) ;
#51 = CARTESIAN_POINT ( 'NONE',  ( 0.000000000000000000, 0.000000000000000000, 7.199999999999984190 ) ) ;
#52 = CARTESIAN_POINT ( 'NONE',  ( 8.000000000000000000, 9.797174393178825657E-16, 507.0000000000000000 ) ) ;
#53 = CIRCLE ( 'NONE', #126, 8.000000000000000000 ) ;
#54 = VERTEX_POINT ( 'NONE', #283 ) ;
#55 = CARTESIAN_POINT ( 'NONE',  ( 0.000000000000000000, 0.000000000000000000, 507.0000000000000000 ) ) ;
#56 = ADVANCED_FACE ( 'NONE', ( #99 ), #132, .F. ) ;
#57 = CYLINDRICAL_SURFACE ( 'NONE', #178, 8.000000000000000000 ) ;
#58 = DIRECTION ( 'NONE',  ( 0.000000000000000000, 0.000000000000000000, 1.000000000000000000 ) ) ;
#59 = DIRECTION ( 'NONE',  ( 0.000000000000000000, 0.000000000000000000, 1.000000000000000000 ) ) ;
#60 = CC_DESIGN_APPROVAL ( #81, ( #134 ) ) ;
#61 = DATE_TIME_ROLE ( 'classification_date' ) ;
#62 = ADVANCED_FACE ( 'NONE', ( #218 ), #217, .T. ) ;
#63 = CARTESIAN_POINT ( 'NONE',  ( -8.000000000000000000, 0.000000000000000000, 7.199999999999984190 ) ) ;
#64 = APPROVAL_DATE_TIME ( #180, #220 ) ;
#65 = CARTESIAN_POINT ( 'NONE',  ( 0.000000000000000000, 0.000000000000000000, 507.0000000000000000 ) ) ;
#66 = APPROVAL_STATUS ( 'not_yet_approved' ) ;
#67 = CIRCLE ( 'NONE', #21, 11.00000000000000000 ) ;
#68 = ORIENTED_EDGE ( 'NONE', *, *, #306, .F. ) ;
#69 = AXIS2_PLACEMENT_3D ( 'NONE', #244, #6, #106 ) ;
#70 = ORIENTED_EDGE ( 'NONE', *, *, #44, .T. ) ;
#71 = ORIENTED_EDGE ( 'NONE', *, *, #189, .T. ) ;
#72 = DIRECTION ( 'NONE',  ( 0.000000000000000000, 0.000000000000000000, 1.000000000000000000 ) ) ;
#73 = CIRCLE ( 'NONE', #245, 0.2000000000000005107 ) ;
#74 = LOCAL_TIME ( 14, 20, 19.00000000000000000, #296 ) ;
#75 = CARTESIAN_POINT ( 'NONE',  ( -8.200000000000001066, 1.004210375300829674E-15, 7.199999999999984190 ) ) ;
#76 = VERTEX_POINT ( 'NONE', #305 ) ;
#77 = CARTESIAN_POINT ( 'NONE',  ( -11.00000000000000000, 0.000000000000000000, 7.000000000000000000 ) ) ;
#78 = CIRCLE ( 'NONE', #222, 11.00000000000000000 ) ;
#79 = VECTOR ( 'NONE', #20, 1000.000000000000000 ) ;
#80 = DIRECTION ( 'NONE',  ( 1.000000000000000000, 0.000000000000000000, -0.000000000000000000 ) ) ;
#81 = APPROVAL ( #66, 'NEURÈENÝ' ) ;
#82 = DIRECTION ( 'NONE',  ( 0.000000000000000000, 0.000000000000000000, 1.000000000000000000 ) ) ;
#83 = APPROVAL_ROLE ( '' ) ;
#84 = CYLINDRICAL_SURFACE ( 'NONE', #146, 11.00000000000000000 ) ;
#85 = PERSON ( 'NEURÈENÝ', 'NEURÈENÝ', 'NEURÈENÝ', ('NEURÈENÝ'), ('NEURÈENÝ'), ('NEURÈENÝ') ) ;
#86 = APPLICATION_PROTOCOL_DEFINITION ( 'international standard', 'config_control_design', 1994, #169 ) ;
#87 = CARTESIAN_POINT ( 'NONE',  ( 0.000000000000000000, 0.000000000000000000, 7.000000000000000000 ) ) ;
#88 = AXIS2_PLACEMENT_3D ( 'NONE', #65, #29, #103 ) ;
#89 = CALENDAR_DATE ( 2022, 7, 7 ) ;
#90 = CARTESIAN_POINT ( 'NONE',  ( 0.000000000000000000, 0.000000000000000000, 7.000000000000000000 ) ) ;
#91 = AXIS2_PLACEMENT_3D ( 'NONE', #7, #12, #128 ) ;
#92 = ADVANCED_FACE ( 'NONE', ( #237 ), #2, .F. ) ;
#93 = ORIENTED_EDGE ( 'NONE', *, *, #19, .T. ) ;
#94 = PRODUCT ( 'f4de', 'f4de', '', ( #16 ) ) ;
#95 = EDGE_CURVE ( 'NONE', #303, #262, #302, .T. ) ;
#96 = AXIS2_PLACEMENT_3D ( 'NONE', #199, #82, #202 ) ;
#97 = CARTESIAN_POINT ( 'NONE',  ( 0.000000000000000000, 0.000000000000000000, 0.000000000000000000 ) ) ;
#98 = VERTEX_POINT ( 'NONE', #33 ) ;
#99 = FACE_OUTER_BOUND ( 'NONE', #195, .T. ) ;
#100 = DIRECTION ( 'NONE',  ( 0.000000000000000000, 0.000000000000000000, 1.000000000000000000 ) ) ;
#101 = VERTEX_POINT ( 'NONE', #293 ) ;
#102 = EDGE_CURVE ( 'NONE', #213, #101, #78, .T. ) ;
#103 = DIRECTION ( 'NONE',  ( -1.000000000000000000, 0.000000000000000000, 0.000000000000000000 ) ) ;
#104 = FACE_OUTER_BOUND ( 'NONE', #184, .T. ) ;
#105 = APPLICATION_PROTOCOL_DEFINITION ( 'international standard', 'config_control_design', 1994, #138 ) ;
#106 = DIRECTION ( 'NONE',  ( 1.000000000000000000, 0.000000000000000000, 0.000000000000000000 ) ) ;
#107 = DATE_AND_TIME ( #11, #152 ) ;
#108 = CARTESIAN_POINT ( 'NONE',  ( 0.000000000000000000, 0.000000000000000000, 507.0000000000000000 ) ) ;
#109 = PERSON_AND_ORGANIZATION ( #85, #279 ) ;
#110 = CARTESIAN_POINT ( 'NONE',  ( 11.00000000000000000, 1.347111479062088405E-15, 7.000000000000000000 ) ) ;
#111 = CIRCLE ( 'NONE', #214, 0.1999999999999996503 ) ;
#112 = PERSON_AND_ORGANIZATION_ROLE ( 'design_owner' ) ;
#113 = ADVANCED_FACE ( 'NONE', ( #104 ), #291, .T. ) ;
#114 = VECTOR ( 'NONE', #263, 1000.000000000000000 ) ;
#115 = EDGE_CURVE ( 'NONE', #120, #98, #255, .T. ) ;
#116 = FACE_OUTER_BOUND ( 'NONE', #256, .T. ) ;
#117 = CIRCLE ( 'NONE', #96, 11.00000000000000000 ) ;
#118 = ORIENTED_EDGE ( 'NONE', *, *, #19, .F. ) ;
#119 = ADVANCED_FACE ( 'NONE', ( #201 ), #57, .T. ) ;
#120 = VERTEX_POINT ( 'NONE', #63 ) ;
#121 = CIRCLE ( 'NONE', #198, 8.000000000000000000 ) ;
#122 = CARTESIAN_POINT ( 'NONE',  ( 0.000000000000000000, 0.000000000000000000, 0.000000000000000000 ) ) ;
#123 = DIRECTION ( 'NONE',  ( -0.000000000000000000, -0.000000000000000000, -1.000000000000000000 ) ) ;
#124 = DIRECTION ( 'NONE',  ( 1.000000000000000000, 0.000000000000000000, 0.000000000000000000 ) ) ;
#125 = DATE_AND_TIME ( #207, #8 ) ;
#126 = AXIS2_PLACEMENT_3D ( 'NONE', #226, #38, #124 ) ;
#127 = DIRECTION ( 'NONE',  ( 0.000000000000000000, 0.000000000000000000, 1.000000000000000000 ) ) ;
#128 = DIRECTION ( 'NONE',  ( 1.000000000000000000, 0.000000000000000000, 0.000000000000000000 ) ) ;
#129 = PERSON_AND_ORGANIZATION ( #85, #279 ) ;
#130 = DIRECTION ( 'NONE',  ( -0.000000000000000000, -0.000000000000000000, -1.000000000000000000 ) ) ;
#131 = APPROVAL_DATE_TIME ( #292, #81 ) ;
#132 = TOROIDAL_SURFACE ( 'NONE', #304, 8.200000000000001066, 0.2000000000000000111 ) ;
#133 = PERSON_AND_ORGANIZATION ( #85, #279 ) ;
#134 = PRODUCT_DEFINITION ( 'NEZNÁMÝ', '', #171, #5 ) ;
#135 = ORIENTED_EDGE ( 'NONE', *, *, #281, .T. ) ;
#136 =( GEOMETRIC_REPRESENTATION_CONTEXT ( 3 ) GLOBAL_UNCERTAINTY_ASSIGNED_CONTEXT ( ( #9 ) ) GLOBAL_UNIT_ASSIGNED_CONTEXT ( ( #251, #298, #40 ) ) REPRESENTATION_CONTEXT ( 'NONE', 'WORKASPACE' ) );
#137 = ORIENTED_EDGE ( 'NONE', *, *, #32, .T. ) ;
#138 = APPLICATION_CONTEXT ( 'configuration controlled 3d designs of mechanical parts and assemblies' ) ;
#139 = EDGE_LOOP ( 'NONE', ( #254, #93, #258, #208 ) ) ;
#140 = EDGE_LOOP ( 'NONE', ( #161, #230 ) ) ;
#141 = LOCAL_TIME ( 14, 20, 19.00000000000000000, #247 ) ;
#142 = ORIENTED_EDGE ( 'NONE', *, *, #115, .F. ) ;
#143 = DIRECTION ( 'NONE',  ( -1.000000000000000000, 0.000000000000000000, 0.000000000000000000 ) ) ;
#144 = EDGE_LOOP ( 'NONE', ( #24, #215, #137, #164 ) ) ;
#145 = CC_DESIGN_PERSON_AND_ORGANIZATION_ASSIGNMENT ( #266, #151, ( #34 ) ) ;
#146 = AXIS2_PLACEMENT_3D ( 'NONE', #153, #248, #264 ) ;
#147 = LINE ( 'NONE', #1, #79 ) ;
#148 = DIRECTION ( 'NONE',  ( -1.000000000000000000, 0.000000000000000000, 0.000000000000000000 ) ) ;
#149 = CARTESIAN_POINT ( 'NONE',  ( 0.000000000000000000, 0.000000000000000000, 0.000000000000000000 ) ) ;
#150 = CARTESIAN_POINT ( 'NONE',  ( -8.000000000000000000, 0.000000000000000000, 507.0000000000000000 ) ) ;
#151 = PERSON_AND_ORGANIZATION_ROLE ( 'classification_officer' ) ;
#152 = LOCAL_TIME ( 14, 20, 19.00000000000000000, #225 ) ;
#153 = CARTESIAN_POINT ( 'NONE',  ( 0.000000000000000000, 0.000000000000000000, 7.000000000000000000 ) ) ;
#154 = PERSON_AND_ORGANIZATION_ROLE ( 'design_supplier' ) ;
#155 = PLANE ( 'NONE',  #158 ) ;
#156 = DIRECTION ( 'NONE',  ( 1.000000000000000000, 0.000000000000000000, 0.000000000000000000 ) ) ;
#157 = CALENDAR_DATE ( 2022, 7, 7 ) ;
#158 = AXIS2_PLACEMENT_3D ( 'NONE', #289, #182, #221 ) ;
#159 = VERTEX_POINT ( 'NONE', #150 ) ;
#160 = AXIS2_PLACEMENT_3D ( 'NONE', #149, #58, #300 ) ;
#161 = ORIENTED_EDGE ( 'NONE', *, *, #299, .T. ) ;
#162 = EDGE_LOOP ( 'NONE', ( #45, #233, #257, #168 ) ) ;
#163 = LINE ( 'NONE', #52, #268 ) ;
#164 = ORIENTED_EDGE ( 'NONE', *, *, #39, .F. ) ;
#165 = AXIS2_PLACEMENT_3D ( 'NONE', #90, #59, #242 ) ;
#166 = CARTESIAN_POINT ( 'NONE',  ( 0.000000000000000000, 0.000000000000000000, 7.199999999999984190 ) ) ;
#167 = CC_DESIGN_PERSON_AND_ORGANIZATION_ASSIGNMENT ( #223, #154, ( #171 ) ) ;
#168 = ORIENTED_EDGE ( 'NONE', *, *, #227, .T. ) ;
#169 = APPLICATION_CONTEXT ( 'configuration controlled 3d designs of mechanical parts and assemblies' ) ;
#170 = ORIENTED_EDGE ( 'NONE', *, *, #299, .F. ) ;
#171 = PRODUCT_DEFINITION_FORMATION_WITH_SPECIFIED_SOURCE ( 'LIBOVOLNÝ', '', #94, .NOT_KNOWN. ) ;
#172 = DIRECTION ( 'NONE',  ( 0.000000000000000000, 0.000000000000000000, 1.000000000000000000 ) ) ;
#173 = CARTESIAN_POINT ( 'NONE',  ( -8.200000000000001066, 1.004210375300829674E-15, 6.999999999999992006 ) ) ;
#174 = ADVANCED_FACE ( 'NONE', ( #14 ), #84, .T. ) ;
#175 = SECURITY_CLASSIFICATION_LEVEL ( 'unclassified' ) ;
#176 = DIRECTION ( 'NONE',  ( 0.000000000000000000, 0.000000000000000000, 1.000000000000000000 ) ) ;
#177 = DATE_TIME_ROLE ( 'creation_date' ) ;
#178 = AXIS2_PLACEMENT_3D ( 'NONE', #108, #123, #148 ) ;
#179 = CARTESIAN_POINT ( 'NONE',  ( 8.200000000000001066, 0.000000000000000000, 6.999999999999992006 ) ) ;
#180 = DATE_AND_TIME ( #89, #74 ) ;
#181 = CC_DESIGN_PERSON_AND_ORGANIZATION_ASSIGNMENT ( #252, #229, ( #134 ) ) ;
#182 = DIRECTION ( 'NONE',  ( 0.000000000000000000, 0.000000000000000000, 1.000000000000000000 ) ) ;
#183 = PERSON_AND_ORGANIZATION ( #85, #279 ) ;
#184 = EDGE_LOOP ( 'NONE', ( #118, #170, #70, #4 ) ) ;
#185 = COORDINATED_UNIVERSAL_TIME_OFFSET ( 1, 0, .AHEAD. ) ;
#186 = CC_DESIGN_APPROVAL ( #26, ( #171 ) ) ;
#187 = VECTOR ( 'NONE', #130, 1000.000000000000000 ) ;
#188 = EDGE_LOOP ( 'NONE', ( #235, #232 ) ) ;
#189 = EDGE_CURVE ( 'NONE', #101, #213, #15, .T. ) ;
#190 = DIRECTION ( 'NONE',  ( 0.000000000000000000, -1.000000000000000000, 0.000000000000000000 ) ) ;
#191 = DIRECTION ( 'NONE',  ( -1.000000000000000000, 1.224646799147353207E-16, 0.000000000000000000 ) ) ;
#192 = CARTESIAN_POINT ( 'NONE',  ( 0.000000000000000000, 0.000000000000000000, 7.000000000000000000 ) ) ;
#193 = LOCAL_TIME ( 14, 20, 19.00000000000000000, #185 ) ;
#194 = PRODUCT_RELATED_PRODUCT_CATEGORY ( 'detail', '', ( #94 ) ) ;
#195 = EDGE_LOOP ( 'NONE', ( #42, #68, #277, #25 ) ) ;
#196 = DIRECTION ( 'NONE',  ( -0.000000000000000000, -0.000000000000000000, -1.000000000000000000 ) ) ;
#197 = CARTESIAN_POINT ( 'NONE',  ( 0.000000000000000000, 0.000000000000000000, 7.199999999999984190 ) ) ;
#198 = AXIS2_PLACEMENT_3D ( 'NONE', #265, #127, #156 ) ;
#199 = CARTESIAN_POINT ( 'NONE',  ( 0.000000000000000000, 0.000000000000000000, 0.000000000000000000 ) ) ;
#200 = EDGE_CURVE ( 'NONE', #213, #76, #224, .T. ) ;
#201 = FACE_OUTER_BOUND ( 'NONE', #139, .T. ) ;
#202 = DIRECTION ( 'NONE',  ( 1.000000000000000000, 0.000000000000000000, 0.000000000000000000 ) ) ;
#203 = APPROVAL_ROLE ( '' ) ;
#204 = CC_DESIGN_DATE_AND_TIME_ASSIGNMENT ( #125, #177, ( #134 ) ) ;
#205 = CIRCLE ( 'NONE', #290, 8.000000000000000000 ) ;
#206 = DIRECTION ( 'NONE',  ( 1.000000000000000000, 0.000000000000000000, 0.000000000000000000 ) ) ;
#207 = CALENDAR_DATE ( 2022, 7, 7 ) ;
#208 = ORIENTED_EDGE ( 'NONE', *, *, #44, .F. ) ;
#209 = CLOSED_SHELL ( 'NONE', ( #47, #119, #174, #62, #241, #92, #113, #294, #56 ) ) ;
#210 = APPROVAL_PERSON_ORGANIZATION ( #129, #220, #203 ) ;
#211 = ADVANCED_BREP_SHAPE_REPRESENTATION ( 'f4de', ( #35, #160 ), #136 ) ;
#212 = ORIENTED_EDGE ( 'NONE', *, *, #95, .T. ) ;
#213 = VERTEX_POINT ( 'NONE', #297 ) ;
#214 = AXIS2_PLACEMENT_3D ( 'NONE', #238, #190, #288 ) ;
#215 = ORIENTED_EDGE ( 'NONE', *, *, #200, .T. ) ;
#216 = CARTESIAN_POINT ( 'NONE',  ( 8.000000000000000000, 9.797174393178825657E-16, 507.0000000000000000 ) ) ;
#217 = CYLINDRICAL_SURFACE ( 'NONE', #49, 11.00000000000000000 ) ;
#218 = FACE_OUTER_BOUND ( 'NONE', #162, .T. ) ;
#219 = PLANE ( 'NONE',  #165 ) ;
#220 = APPROVAL ( #13, 'NEURÈENÝ' ) ;
#221 = DIRECTION ( 'NONE',  ( 1.000000000000000000, 0.000000000000000000, -0.000000000000000000 ) ) ;
#222 = AXIS2_PLACEMENT_3D ( 'NONE', #249, #240, #295 ) ;
#223 = PERSON_AND_ORGANIZATION ( #85, #279 ) ;
#224 = LINE ( 'NONE', #110, #187 ) ;
#225 = COORDINATED_UNIVERSAL_TIME_OFFSET ( 1, 0, .AHEAD. ) ;
#226 = CARTESIAN_POINT ( 'NONE',  ( 0.000000000000000000, 0.000000000000000000, 507.0000000000000000 ) ) ;
#227 = EDGE_CURVE ( 'NONE', #54, #76, #117, .T. ) ;
#228 = DIRECTION ( 'NONE',  ( 0.000000000000000000, 0.000000000000000000, 1.000000000000000000 ) ) ;
#229 = PERSON_AND_ORGANIZATION_ROLE ( 'creator' ) ;
#230 = ORIENTED_EDGE ( 'NONE', *, *, #236, .T. ) ;
#231 = AXIS2_PLACEMENT_3D ( 'NONE', #87, #30, #272 ) ;
#232 = ORIENTED_EDGE ( 'NONE', *, *, #32, .F. ) ;
#233 = ORIENTED_EDGE ( 'NONE', *, *, #189, .F. ) ;
#234 = LINE ( 'NONE', #77, #114 ) ;
#235 = ORIENTED_EDGE ( 'NONE', *, *, #227, .F. ) ;
#236 = EDGE_CURVE ( 'NONE', #46, #159, #205, .T. ) ;
#237 = FACE_OUTER_BOUND ( 'NONE', #188, .T. ) ;
#238 = CARTESIAN_POINT ( 'NONE',  ( 8.200000000000001066, 0.000000000000000000, 7.199999999999984190 ) ) ;
#239 = TOROIDAL_SURFACE ( 'NONE', #18, 8.200000000000001066, 0.2000000000000000111 ) ;
#240 = DIRECTION ( 'NONE',  ( 0.000000000000000000, 0.000000000000000000, 1.000000000000000000 ) ) ;
#241 = ADVANCED_FACE ( 'NONE', ( #274, #267 ), #219, .T. ) ;
#242 = DIRECTION ( 'NONE',  ( 1.000000000000000000, 0.000000000000000000, -0.000000000000000000 ) ) ;
#243 = DATE_AND_TIME ( #278, #193 ) ;
#244 = CARTESIAN_POINT ( 'NONE',  ( 0.000000000000000000, 0.000000000000000000, 7.000000000000000000 ) ) ;
#245 = AXIS2_PLACEMENT_3D ( 'NONE', #75, #23, #191 ) ;
#246 = CC_DESIGN_APPROVAL ( #220, ( #34 ) ) ;
#247 = COORDINATED_UNIVERSAL_TIME_OFFSET ( 1, 0, .AHEAD. ) ;
#248 = DIRECTION ( 'NONE',  ( -0.000000000000000000, -0.000000000000000000, -1.000000000000000000 ) ) ;
#249 = CARTESIAN_POINT ( 'NONE',  ( 0.000000000000000000, 0.000000000000000000, 7.000000000000000000 ) ) ;
#250 = PERSON_AND_ORGANIZATION ( #85, #279 ) ;
#251 =( LENGTH_UNIT ( ) NAMED_UNIT ( * ) SI_UNIT ( .MILLI., .METRE. ) );
#252 = PERSON_AND_ORGANIZATION ( #85, #279 ) ;
#253 = AXIS2_PLACEMENT_3D ( 'NONE', #97, #228, #80 ) ;
#254 = ORIENTED_EDGE ( 'NONE', *, *, #236, .F. ) ;
#255 = CIRCLE ( 'NONE', #259, 8.000000000000000000 ) ;
#256 = EDGE_LOOP ( 'NONE', ( #142, #286, #28, #260 ) ) ;
#257 = ORIENTED_EDGE ( 'NONE', *, *, #39, .T. ) ;
#258 = ORIENTED_EDGE ( 'NONE', *, *, #306, .T. ) ;
#259 = AXIS2_PLACEMENT_3D ( 'NONE', #197, #172, #10 ) ;
#260 = ORIENTED_EDGE ( 'NONE', *, *, #22, .F. ) ;
#261 = DIRECTION ( 'NONE',  ( -0.000000000000000000, -0.000000000000000000, -1.000000000000000000 ) ) ;
#262 = VERTEX_POINT ( 'NONE', #179 ) ;
#263 = DIRECTION ( 'NONE',  ( -0.000000000000000000, -0.000000000000000000, -1.000000000000000000 ) ) ;
#264 = DIRECTION ( 'NONE',  ( -1.000000000000000000, 0.000000000000000000, 0.000000000000000000 ) ) ;
#265 = CARTESIAN_POINT ( 'NONE',  ( 0.000000000000000000, 0.000000000000000000, 7.199999999999984190 ) ) ;
#266 = PERSON_AND_ORGANIZATION ( #85, #279 ) ;
#267 = FACE_OUTER_BOUND ( 'NONE', #301, .T. ) ;
#268 = VECTOR ( 'NONE', #196, 1000.000000000000000 ) ;
#269 = CIRCLE ( 'NONE', #69, 8.200000000000001066 ) ;
#270 = APPROVAL_STATUS ( 'not_yet_approved' ) ;
#271 = CC_DESIGN_PERSON_AND_ORGANIZATION_ASSIGNMENT ( #250, #36, ( #171 ) ) ;
#272 = DIRECTION ( 'NONE',  ( 1.000000000000000000, 0.000000000000000000, 0.000000000000000000 ) ) ;
#273 = SHAPE_DEFINITION_REPRESENTATION ( #43, #211 ) ;
#274 = FACE_BOUND ( 'NONE', #280, .T. ) ;
#275 = APPROVAL_ROLE ( '' ) ;
#276 = CC_DESIGN_DATE_AND_TIME_ASSIGNMENT ( #107, #61, ( #34 ) ) ;
#277 = ORIENTED_EDGE ( 'NONE', *, *, #22, .T. ) ;
#278 = CALENDAR_DATE ( 2022, 7, 7 ) ;
#279 = ORGANIZATION ( 'NEURÈENÝ', 'NEURÈENÝ', '' ) ;
#280 = EDGE_LOOP ( 'NONE', ( #135, #212 ) ) ;
#281 = EDGE_CURVE ( 'NONE', #262, #303, #269, .T. ) ;
#282 = DIRECTION ( 'NONE',  ( 1.000000000000000000, 0.000000000000000000, 0.000000000000000000 ) ) ;
#283 = CARTESIAN_POINT ( 'NONE',  ( -11.00000000000000000, 0.000000000000000000, 0.000000000000000000 ) ) ;
#284 = CC_DESIGN_SECURITY_CLASSIFICATION ( #34, ( #171 ) ) ;
#285 = DIRECTION ( 'NONE',  ( 1.000000000000000000, 0.000000000000000000, 0.000000000000000000 ) ) ;
#286 = ORIENTED_EDGE ( 'NONE', *, *, #3, .T. ) ;
#287 = CC_DESIGN_PERSON_AND_ORGANIZATION_ASSIGNMENT ( #133, #112, ( #94 ) ) ;
#288 = DIRECTION ( 'NONE',  ( 0.000000000000000000, 0.000000000000000000, -1.000000000000000000 ) ) ;
#289 = CARTESIAN_POINT ( 'NONE',  ( 0.000000000000000000, 0.000000000000000000, 507.0000000000000000 ) ) ;
#290 = AXIS2_PLACEMENT_3D ( 'NONE', #55, #176, #206 ) ;
#291 = CYLINDRICAL_SURFACE ( 'NONE', #88, 8.000000000000000000 ) ;
#292 = DATE_AND_TIME ( #157, #141 ) ;
#293 = CARTESIAN_POINT ( 'NONE',  ( -11.00000000000000000, 0.000000000000000000, 7.000000000000000000 ) ) ;
#294 = ADVANCED_FACE ( 'NONE', ( #37 ), #155, .T. ) ;
#295 = DIRECTION ( 'NONE',  ( 1.000000000000000000, 0.000000000000000000, 0.000000000000000000 ) ) ;
#296 = COORDINATED_UNIVERSAL_TIME_OFFSET ( 1, 0, .AHEAD. ) ;
#297 = CARTESIAN_POINT ( 'NONE',  ( 11.00000000000000000, 1.347111479062088405E-15, 7.000000000000000000 ) ) ;
#298 =( NAMED_UNIT ( * ) PLANE_ANGLE_UNIT ( ) SI_UNIT ( $, .RADIAN. ) );
#299 = EDGE_CURVE ( 'NONE', #159, #46, #53, .T. ) ;
#300 = DIRECTION ( 'NONE',  ( 1.000000000000000000, 0.000000000000000000, 0.000000000000000000 ) ) ;
#301 = EDGE_LOOP ( 'NONE', ( #71, #307 ) ) ;
#302 = CIRCLE ( 'NONE', #91, 8.200000000000001066 ) ;
#303 = VERTEX_POINT ( 'NONE', #173 ) ;
#304 = AXIS2_PLACEMENT_3D ( 'NONE', #51, #100, #285 ) ;
#305 = CARTESIAN_POINT ( 'NONE',  ( 11.00000000000000000, 1.347111479062088405E-15, 0.000000000000000000 ) ) ;
#306 = EDGE_CURVE ( 'NONE', #98, #120, #121, .T. ) ;
#307 = ORIENTED_EDGE ( 'NONE', *, *, #102, .T. ) ;
ENDSEC;
END-ISO-10303-21;
