ISO-10303-21;
HEADER;
FILE_DESCRIPTION (( 'STEP AP203' ),
    '1' );
FILE_NAME ('bb0f.STEP',
    '2022-07-07T12:26:38',
    ( '' ),
    ( '' ),
    'SwSTEP 2.0',
    'SolidWorks 2019',
    '' );
FILE_SCHEMA (( 'CONFIG_CONTROL_DESIGN' ));
ENDSEC;

DATA;
#1 = APPROVAL_ROLE ( '' ) ;
#2 = EDGE_CURVE ( 'NONE', #90, #224, #296, .T. ) ;
#3 = APPROVAL_PERSON_ORGANIZATION ( #112, #114, #1 ) ;
#4 = SECURITY_CLASSIFICATION_LEVEL ( 'unclassified' ) ;
#5 = ORIENTED_EDGE ( 'NONE', *, *, #251, .T. ) ;
#6 = APPLICATION_PROTOCOL_DEFINITION ( 'international standard', 'config_control_design', 1994, #152 ) ;
#7 = ORIENTED_EDGE ( 'NONE', *, *, #275, .F. ) ;
#8 = DIRECTION ( 'NONE',  ( -0.000000000000000000, -0.000000000000000000, -1.000000000000000000 ) ) ;
#9 = VERTEX_POINT ( 'NONE', #12 ) ;
#10 = FACE_OUTER_BOUND ( 'NONE', #30, .T. ) ;
#11 =( GEOMETRIC_REPRESENTATION_CONTEXT ( 3 ) GLOBAL_UNCERTAINTY_ASSIGNED_CONTEXT ( ( #186 ) ) GLOBAL_UNIT_ASSIGNED_CONTEXT ( ( #262, #182, #62 ) ) REPRESENTATION_CONTEXT ( 'NONE', 'WORKASPACE' ) );
#12 = CARTESIAN_POINT ( 'NONE',  ( 5.099999999999999645, 6.245698675651500839E-16, 205.0000000000000284 ) ) ;
#13 = CYLINDRICAL_SURFACE ( 'NONE', #307, 8.000000000000000000 ) ;
#14 = CARTESIAN_POINT ( 'NONE',  ( 0.000000000000000000, 0.000000000000000000, 5.000000000000000000 ) ) ;
#15 = DIRECTION ( 'NONE',  ( 1.000000000000000000, 0.000000000000000000, 0.000000000000000000 ) ) ;
#16 = DIRECTION ( 'NONE',  ( 1.000000000000000000, 0.000000000000000000, -0.000000000000000000 ) ) ;
#17 = DIRECTION ( 'NONE',  ( 0.000000000000000000, 0.000000000000000000, 1.000000000000000000 ) ) ;
#18 = EDGE_CURVE ( 'NONE', #171, #118, #175, .T. ) ;
#19 = DIRECTION ( 'NONE',  ( 0.000000000000000000, 0.000000000000000000, 1.000000000000000000 ) ) ;
#20 = PERSON ( 'NEURÈENÝ', 'NEURÈENÝ', 'NEURÈENÝ', ('NEURÈENÝ'), ('NEURÈENÝ'), ('NEURÈENÝ') ) ;
#21 = CC_DESIGN_SECURITY_CLASSIFICATION ( #63, ( #178 ) ) ;
#22 = ADVANCED_FACE ( 'NONE', ( #72 ), #225, .T. ) ;
#23 = APPROVAL_DATE_TIME ( #66, #288 ) ;
#24 = APPLICATION_PROTOCOL_DEFINITION ( 'international standard', 'config_control_design', 1994, #184 ) ;
#25 = ORIENTED_EDGE ( 'NONE', *, *, #216, .T. ) ;
#26 = PERSON_AND_ORGANIZATION ( #20, #183 ) ;
#27 = EDGE_LOOP ( 'NONE', ( #202, #298 ) ) ;
#28 = ORIENTED_EDGE ( 'NONE', *, *, #285, .F. ) ;
#29 = DIRECTION ( 'NONE',  ( -0.000000000000000000, -0.000000000000000000, -1.000000000000000000 ) ) ;
#30 = EDGE_LOOP ( 'NONE', ( #195, #89, #196, #75 ) ) ;
#31 = CYLINDRICAL_SURFACE ( 'NONE', #77, 5.099999999999999645 ) ;
#32 = TOROIDAL_SURFACE ( 'NONE', #227, 5.299999999999998934, 0.2000000000000000111 ) ;
#33 = DIRECTION ( 'NONE',  ( -1.000000000000000000, 0.000000000000000000, 0.000000000000000000 ) ) ;
#34 = EDGE_CURVE ( 'NONE', #9, #90, #139, .T. ) ;
#35 = DIRECTION ( 'NONE',  ( -1.000000000000000000, 0.000000000000000000, 0.000000000000000000 ) ) ;
#36 = DIRECTION ( 'NONE',  ( 1.000000000000000000, 0.000000000000000000, 0.000000000000000000 ) ) ;
#37 = DIRECTION ( 'NONE',  ( 0.000000000000000000, 0.000000000000000000, 1.000000000000000000 ) ) ;
#38 = CIRCLE ( 'NONE', #215, 5.299999999999998934 ) ;
#39 = CC_DESIGN_PERSON_AND_ORGANIZATION_ASSIGNMENT ( #217, #218, ( #63 ) ) ;
#40 = CARTESIAN_POINT ( 'NONE',  ( 0.000000000000000000, 0.000000000000000000, 5.200000000000009948 ) ) ;
#41 = AXIS2_PLACEMENT_3D ( 'NONE', #74, #200, #232 ) ;
#42 = CALENDAR_DATE ( 2022, 7, 7 ) ;
#43 = CIRCLE ( 'NONE', #100, 5.299999999999998934 ) ;
#44 = EDGE_CURVE ( 'NONE', #118, #171, #192, .T. ) ;
#45 = PERSON_AND_ORGANIZATION_ROLE ( 'design_supplier' ) ;
#46 = ORIENTED_EDGE ( 'NONE', *, *, #127, .T. ) ;
#47 = PERSON_AND_ORGANIZATION ( #20, #183 ) ;
#48 = PRODUCT_RELATED_PRODUCT_CATEGORY ( 'detail', '', ( #177 ) ) ;
#49 = AXIS2_PLACEMENT_3D ( 'NONE', #76, #29, #197 ) ;
#50 = DIRECTION ( 'NONE',  ( -0.000000000000000000, -0.000000000000000000, -1.000000000000000000 ) ) ;
#51 = ORIENTED_EDGE ( 'NONE', *, *, #156, .F. ) ;
#52 = DIRECTION ( 'NONE',  ( 0.000000000000000000, -1.000000000000000000, 0.000000000000000000 ) ) ;
#53 = EDGE_LOOP ( 'NONE', ( #7, #28, #46, #93 ) ) ;
#54 = ORIENTED_EDGE ( 'NONE', *, *, #164, .T. ) ;
#55 = DIRECTION ( 'NONE',  ( 0.000000000000000000, 0.000000000000000000, 1.000000000000000000 ) ) ;
#56 = ADVANCED_FACE ( 'NONE', ( #10 ), #204, .T. ) ;
#57 = PRODUCT_DEFINITION_SHAPE ( 'NONE', 'NONE',  #201 ) ;
#58 = DIRECTION ( 'NONE',  ( 0.000000000000000000, 0.000000000000000000, 1.000000000000000000 ) ) ;
#59 = PLANE ( 'NONE',  #280 ) ;
#60 = CARTESIAN_POINT ( 'NONE',  ( -5.299999999999998934, 6.490628035480970938E-16, 5.200000000000009948 ) ) ;
#61 = PLANE ( 'NONE',  #163 ) ;
#62 =( NAMED_UNIT ( * ) SI_UNIT ( $, .STERADIAN. ) SOLID_ANGLE_UNIT ( ) );
#63 = SECURITY_CLASSIFICATION ( '', '', #4 ) ;
#64 = APPROVAL_ROLE ( '' ) ;
#65 = ADVANCED_FACE ( 'NONE', ( #144 ), #271, .F. ) ;
#66 = DATE_AND_TIME ( #160, #245 ) ;
#67 = CIRCLE ( 'NONE', #252, 0.1999999999999996503 ) ;
#68 = PERSON_AND_ORGANIZATION_ROLE ( 'design_owner' ) ;
#69 = PERSON_AND_ORGANIZATION ( #20, #183 ) ;
#70 = ORIENTED_EDGE ( 'NONE', *, *, #105, .T. ) ;
#71 = ORIENTED_EDGE ( 'NONE', *, *, #2, .F. ) ;
#72 = FACE_OUTER_BOUND ( 'NONE', #247, .T. ) ;
#73 = ORIENTED_EDGE ( 'NONE', *, *, #136, .T. ) ;
#74 = CARTESIAN_POINT ( 'NONE',  ( 0.000000000000000000, 0.000000000000000000, 5.000000000000000000 ) ) ;
#75 = ORIENTED_EDGE ( 'NONE', *, *, #304, .T. ) ;
#76 = CARTESIAN_POINT ( 'NONE',  ( 0.000000000000000000, 0.000000000000000000, 205.0000000000000284 ) ) ;
#77 = AXIS2_PLACEMENT_3D ( 'NONE', #300, #8, #35 ) ;
#78 = CARTESIAN_POINT ( 'NONE',  ( 0.000000000000000000, 0.000000000000000000, 5.000000000000000000 ) ) ;
#79 = FACE_OUTER_BOUND ( 'NONE', #228, .T. ) ;
#80 = CARTESIAN_POINT ( 'NONE',  ( 5.099999999999999645, 6.245698675651500839E-16, 205.0000000000000284 ) ) ;
#81 = CIRCLE ( 'NONE', #265, 5.099999999999999645 ) ;
#82 = CC_DESIGN_APPROVAL ( #114, ( #178 ) ) ;
#83 = CC_DESIGN_DATE_AND_TIME_ASSIGNMENT ( #221, #270, ( #63 ) ) ;
#84 = SHAPE_DEFINITION_REPRESENTATION ( #57, #142 ) ;
#85 = AXIS2_PLACEMENT_3D ( 'NONE', #14, #256, #33 ) ;
#86 = CALENDAR_DATE ( 2022, 7, 7 ) ;
#87 = CIRCLE ( 'NONE', #41, 8.000000000000000000 ) ;
#88 = DIRECTION ( 'NONE',  ( 0.000000000000000000, 0.000000000000000000, 1.000000000000000000 ) ) ;
#89 = ORIENTED_EDGE ( 'NONE', *, *, #251, .F. ) ;
#90 = VERTEX_POINT ( 'NONE', #121 ) ;
#91 = DIRECTION ( 'NONE',  ( -1.000000000000000000, 0.000000000000000000, 0.000000000000000000 ) ) ;
#92 = APPROVAL ( #241, 'NEURÈENÝ' ) ;
#93 = ORIENTED_EDGE ( 'NONE', *, *, #189, .F. ) ;
#94 = CARTESIAN_POINT ( 'NONE',  ( -8.000000000000000000, 0.000000000000000000, 5.000000000000000000 ) ) ;
#95 = VERTEX_POINT ( 'NONE', #94 ) ;
#96 = CARTESIAN_POINT ( 'NONE',  ( 5.299999999999998934, 0.000000000000000000, 5.200000000000009948 ) ) ;
#97 = CARTESIAN_POINT ( 'NONE',  ( 0.000000000000000000, 0.000000000000000000, 0.000000000000000000 ) ) ;
#98 = LINE ( 'NONE', #122, #214 ) ;
#99 = CARTESIAN_POINT ( 'NONE',  ( -5.299999999999998934, 6.490628035480970938E-16, 5.000000000000005329 ) ) ;
#100 = AXIS2_PLACEMENT_3D ( 'NONE', #78, #172, #176 ) ;
#101 = CARTESIAN_POINT ( 'NONE',  ( 0.000000000000000000, 0.000000000000000000, 205.0000000000000284 ) ) ;
#102 = FACE_BOUND ( 'NONE', #173, .T. ) ;
#103 = CARTESIAN_POINT ( 'NONE',  ( 0.000000000000000000, 0.000000000000000000, 5.200000000000009948 ) ) ;
#104 = CIRCLE ( 'NONE', #289, 5.099999999999999645 ) ;
#105 = EDGE_CURVE ( 'NONE', #95, #141, #87, .T. ) ;
#106 = AXIS2_PLACEMENT_3D ( 'NONE', #155, #37, #179 ) ;
#107 = CARTESIAN_POINT ( 'NONE',  ( 0.000000000000000000, 0.000000000000000000, 0.000000000000000000 ) ) ;
#108 = COORDINATED_UNIVERSAL_TIME_OFFSET ( 1, 0, .AHEAD. ) ;
#109 = CIRCLE ( 'NONE', #292, 0.1999999999999996503 ) ;
#110 = APPROVAL_ROLE ( '' ) ;
#111 = ORIENTED_EDGE ( 'NONE', *, *, #156, .T. ) ;
#112 = PERSON_AND_ORGANIZATION ( #20, #183 ) ;
#113 = VERTEX_POINT ( 'NONE', #250 ) ;
#114 = APPROVAL ( #165, 'NEURÈENÝ' ) ;
#115 = ORIENTED_EDGE ( 'NONE', *, *, #127, .F. ) ;
#116 = FACE_OUTER_BOUND ( 'NONE', #143, .T. ) ;
#117 = ADVANCED_FACE ( 'NONE', ( #205 ), #31, .T. ) ;
#118 = VERTEX_POINT ( 'NONE', #294 ) ;
#119 = CARTESIAN_POINT ( 'NONE',  ( 8.000000000000000000, 9.797174393178825657E-16, 5.000000000000000000 ) ) ;
#120 = AXIS2_PLACEMENT_3D ( 'NONE', #124, #236, #207 ) ;
#121 = CARTESIAN_POINT ( 'NONE',  ( -5.099999999999999645, 0.000000000000000000, 205.0000000000000284 ) ) ;
#122 = CARTESIAN_POINT ( 'NONE',  ( -8.000000000000000000, 0.000000000000000000, 5.000000000000000000 ) ) ;
#123 = DIRECTION ( 'NONE',  ( 0.000000000000000000, 0.000000000000000000, 1.000000000000000000 ) ) ;
#124 = CARTESIAN_POINT ( 'NONE',  ( 0.000000000000000000, 0.000000000000000000, 5.200000000000009948 ) ) ;
#125 = CARTESIAN_POINT ( 'NONE',  ( 0.000000000000000000, 0.000000000000000000, 205.0000000000000284 ) ) ;
#126 = DIRECTION ( 'NONE',  ( 0.000000000000000000, 0.000000000000000000, 1.000000000000000000 ) ) ;
#127 = EDGE_CURVE ( 'NONE', #113, #249, #109, .T. ) ;
#128 = AXIS2_PLACEMENT_3D ( 'NONE', #125, #17, #16 ) ;
#129 = DESIGN_CONTEXT ( 'detailed design', #184, 'design' ) ;
#130 = APPROVAL_DATE_TIME ( #158, #92 ) ;
#131 = COORDINATED_UNIVERSAL_TIME_OFFSET ( 1, 0, .AHEAD. ) ;
#132 = AXIS2_PLACEMENT_3D ( 'NONE', #151, #255, #148 ) ;
#133 = DATE_TIME_ROLE ( 'creation_date' ) ;
#134 = CIRCLE ( 'NONE', #106, 8.000000000000000000 ) ;
#135 = COORDINATED_UNIVERSAL_TIME_OFFSET ( 1, 0, .AHEAD. ) ;
#136 = EDGE_CURVE ( 'NONE', #249, #246, #43, .T. ) ;
#137 = PERSON_AND_ORGANIZATION_ROLE ( 'creator' ) ;
#138 = ORIENTED_EDGE ( 'NONE', *, *, #285, .T. ) ;
#139 = CIRCLE ( 'NONE', #132, 5.099999999999999645 ) ;
#140 = DATE_AND_TIME ( #42, #229 ) ;
#141 = VERTEX_POINT ( 'NONE', #299 ) ;
#142 = ADVANCED_BREP_SHAPE_REPRESENTATION ( 'bb0f', ( #212, #150 ), #11 ) ;
#143 = EDGE_LOOP ( 'NONE', ( #253, #111, #278, #272 ) ) ;
#144 = FACE_OUTER_BOUND ( 'NONE', #53, .T. ) ;
#145 = CARTESIAN_POINT ( 'NONE',  ( -5.099999999999999645, 0.000000000000000000, 205.0000000000000284 ) ) ;
#146 = DIRECTION ( 'NONE',  ( 0.000000000000000000, 0.000000000000000000, 1.000000000000000000 ) ) ;
#147 = ORIENTED_EDGE ( 'NONE', *, *, #275, .T. ) ;
#148 = DIRECTION ( 'NONE',  ( 1.000000000000000000, 0.000000000000000000, 0.000000000000000000 ) ) ;
#149 = VECTOR ( 'NONE', #303, 1000.000000000000000 ) ;
#150 = AXIS2_PLACEMENT_3D ( 'NONE', #107, #88, #193 ) ;
#151 = CARTESIAN_POINT ( 'NONE',  ( 0.000000000000000000, 0.000000000000000000, 205.0000000000000284 ) ) ;
#152 = APPLICATION_CONTEXT ( 'configuration controlled 3d designs of mechanical parts and assemblies' ) ;
#153 = DIRECTION ( 'NONE',  ( 1.224646799147353207E-16, 1.000000000000000000, -0.000000000000000000 ) ) ;
#154 = DIRECTION ( 'NONE',  ( 1.000000000000000000, 0.000000000000000000, 0.000000000000000000 ) ) ;
#155 = CARTESIAN_POINT ( 'NONE',  ( 0.000000000000000000, 0.000000000000000000, 5.000000000000000000 ) ) ;
#156 = EDGE_CURVE ( 'NONE', #141, #171, #277, .T. ) ;
#157 = DIRECTION ( 'NONE',  ( 0.000000000000000000, 0.000000000000000000, 1.000000000000000000 ) ) ;
#158 = DATE_AND_TIME ( #239, #266 ) ;
#159 = APPROVAL_PERSON_ORGANIZATION ( #190, #288, #110 ) ;
#160 = CALENDAR_DATE ( 2022, 7, 7 ) ;
#161 = AXIS2_PLACEMENT_3D ( 'NONE', #97, #58, #233 ) ;
#162 = APPROVAL_DATE_TIME ( #267, #114 ) ;
#163 = AXIS2_PLACEMENT_3D ( 'NONE', #237, #283, #210 ) ;
#164 = EDGE_CURVE ( 'NONE', #95, #118, #98, .T. ) ;
#165 = APPROVAL_STATUS ( 'not_yet_approved' ) ;
#166 = MECHANICAL_CONTEXT ( 'NONE', #152, 'mechanical' ) ;
#167 = CARTESIAN_POINT ( 'NONE',  ( 0.000000000000000000, 0.000000000000000000, 0.000000000000000000 ) ) ;
#168 = VECTOR ( 'NONE', #50, 1000.000000000000000 ) ;
#169 = ORIENTED_EDGE ( 'NONE', *, *, #34, .T. ) ;
#170 = DIRECTION ( 'NONE',  ( -0.000000000000000000, -0.000000000000000000, -1.000000000000000000 ) ) ;
#171 = VERTEX_POINT ( 'NONE', #223 ) ;
#172 = DIRECTION ( 'NONE',  ( -0.000000000000000000, -0.000000000000000000, -1.000000000000000000 ) ) ;
#173 = EDGE_LOOP ( 'NONE', ( #73, #269 ) ) ;
#174 = DIRECTION ( 'NONE',  ( -0.000000000000000000, -0.000000000000000000, -1.000000000000000000 ) ) ;
#175 = CIRCLE ( 'NONE', #244, 8.000000000000000000 ) ;
#176 = DIRECTION ( 'NONE',  ( 1.000000000000000000, 0.000000000000000000, 0.000000000000000000 ) ) ;
#177 = PRODUCT ( 'bb0f', 'bb0f', '', ( #166 ) ) ;
#178 = PRODUCT_DEFINITION_FORMATION_WITH_SPECIFIED_SOURCE ( 'LIBOVOLNÝ', '', #177, .NOT_KNOWN. ) ;
#179 = DIRECTION ( 'NONE',  ( 1.000000000000000000, 0.000000000000000000, 0.000000000000000000 ) ) ;
#180 = DIRECTION ( 'NONE',  ( 1.000000000000000000, 0.000000000000000000, 0.000000000000000000 ) ) ;
#181 = ADVANCED_FACE ( 'NONE', ( #116 ), #13, .T. ) ;
#182 =( NAMED_UNIT ( * ) PLANE_ANGLE_UNIT ( ) SI_UNIT ( $, .RADIAN. ) );
#183 = ORGANIZATION ( 'NEURÈENÝ', 'NEURÈENÝ', '' ) ;
#184 = APPLICATION_CONTEXT ( 'configuration controlled 3d designs of mechanical parts and assemblies' ) ;
#185 = FACE_OUTER_BOUND ( 'NONE', #27, .T. ) ;
#186 = UNCERTAINTY_MEASURE_WITH_UNIT (LENGTH_MEASURE( 1.000000000000000082E-05 ), #262, 'distance_accuracy_value', 'NONE');
#187 = VECTOR ( 'NONE', #281, 1000.000000000000000 ) ;
#188 = ORIENTED_EDGE ( 'NONE', *, *, #105, .F. ) ;
#189 = EDGE_CURVE ( 'NONE', #246, #249, #38, .T. ) ;
#190 = PERSON_AND_ORGANIZATION ( #20, #183 ) ;
#191 = ADVANCED_FACE ( 'NONE', ( #185 ), #61, .F. ) ;
#192 = CIRCLE ( 'NONE', #161, 8.000000000000000000 ) ;
#193 = DIRECTION ( 'NONE',  ( 1.000000000000000000, 0.000000000000000000, 0.000000000000000000 ) ) ;
#194 = CALENDAR_DATE ( 2022, 7, 7 ) ;
#195 = ORIENTED_EDGE ( 'NONE', *, *, #295, .F. ) ;
#196 = ORIENTED_EDGE ( 'NONE', *, *, #2, .T. ) ;
#197 = DIRECTION ( 'NONE',  ( -1.000000000000000000, 0.000000000000000000, 0.000000000000000000 ) ) ;
#198 = ORIENTED_EDGE ( 'NONE', *, *, #44, .T. ) ;
#199 = APPROVAL_PERSON_ORGANIZATION ( #47, #92, #64 ) ;
#200 = DIRECTION ( 'NONE',  ( 0.000000000000000000, 0.000000000000000000, 1.000000000000000000 ) ) ;
#201 = PRODUCT_DEFINITION ( 'NEZNÁMÝ', '', #178, #129 ) ;
#202 = ORIENTED_EDGE ( 'NONE', *, *, #44, .F. ) ;
#203 = DIRECTION ( 'NONE',  ( 1.000000000000000000, 0.000000000000000000, 0.000000000000000000 ) ) ;
#204 = CYLINDRICAL_SURFACE ( 'NONE', #49, 5.099999999999999645 ) ;
#205 = FACE_OUTER_BOUND ( 'NONE', #291, .T. ) ;
#206 = CC_DESIGN_APPROVAL ( #288, ( #201 ) ) ;
#207 = DIRECTION ( 'NONE',  ( 1.000000000000000000, 0.000000000000000000, 0.000000000000000000 ) ) ;
#208 = DIRECTION ( 'NONE',  ( 1.000000000000000000, 0.000000000000000000, -0.000000000000000000 ) ) ;
#209 = AXIS2_PLACEMENT_3D ( 'NONE', #274, #146, #15 ) ;
#210 = DIRECTION ( 'NONE',  ( 1.000000000000000000, 0.000000000000000000, -0.000000000000000000 ) ) ;
#211 = LOCAL_TIME ( 14, 26, 38.00000000000000000, #264 ) ;
#212 = MANIFOLD_SOLID_BREP ( 'Zaoblit1', #213 ) ;
#213 = CLOSED_SHELL ( 'NONE', ( #231, #117, #181, #22, #263, #191, #56, #238, #65 ) ) ;
#214 = VECTOR ( 'NONE', #174, 1000.000000000000000 ) ;
#215 = AXIS2_PLACEMENT_3D ( 'NONE', #297, #170, #180 ) ;
#216 = EDGE_CURVE ( 'NONE', #141, #95, #134, .T. ) ;
#217 = PERSON_AND_ORGANIZATION ( #20, #183 ) ;
#218 = PERSON_AND_ORGANIZATION_ROLE ( 'classification_officer' ) ;
#219 = PERSON_AND_ORGANIZATION_ROLE ( 'creator' ) ;
#220 = ORIENTED_EDGE ( 'NONE', *, *, #34, .F. ) ;
#221 = DATE_AND_TIME ( #194, #254 ) ;
#222 = ORIENTED_EDGE ( 'NONE', *, *, #136, .F. ) ;
#223 = CARTESIAN_POINT ( 'NONE',  ( 8.000000000000000000, 9.797174393178825657E-16, 0.000000000000000000 ) ) ;
#224 = VERTEX_POINT ( 'NONE', #260 ) ;
#225 = CYLINDRICAL_SURFACE ( 'NONE', #85, 8.000000000000000000 ) ;
#226 = CC_DESIGN_PERSON_AND_ORGANIZATION_ASSIGNMENT ( #26, #68, ( #177 ) ) ;
#227 = AXIS2_PLACEMENT_3D ( 'NONE', #40, #157, #36 ) ;
#228 = EDGE_LOOP ( 'NONE', ( #273, #147, #222, #115 ) ) ;
#229 = LOCAL_TIME ( 14, 26, 38.00000000000000000, #108 ) ;
#230 = CARTESIAN_POINT ( 'NONE',  ( 0.000000000000000000, 0.000000000000000000, 5.000000000000000000 ) ) ;
#231 = ADVANCED_FACE ( 'NONE', ( #79 ), #32, .F. ) ;
#232 = DIRECTION ( 'NONE',  ( 1.000000000000000000, 0.000000000000000000, 0.000000000000000000 ) ) ;
#233 = DIRECTION ( 'NONE',  ( 1.000000000000000000, 0.000000000000000000, 0.000000000000000000 ) ) ;
#234 = PLANE ( 'NONE',  #128 ) ;
#235 = CC_DESIGN_DATE_AND_TIME_ASSIGNMENT ( #140, #133, ( #201 ) ) ;
#236 = DIRECTION ( 'NONE',  ( 0.000000000000000000, 0.000000000000000000, 1.000000000000000000 ) ) ;
#237 = CARTESIAN_POINT ( 'NONE',  ( 0.000000000000000000, 0.000000000000000000, 0.000000000000000000 ) ) ;
#238 = ADVANCED_FACE ( 'NONE', ( #257 ), #234, .T. ) ;
#239 = CALENDAR_DATE ( 2022, 7, 7 ) ;
#240 = PERSON_AND_ORGANIZATION ( #20, #183 ) ;
#241 = APPROVAL_STATUS ( 'not_yet_approved' ) ;
#242 = COORDINATED_UNIVERSAL_TIME_OFFSET ( 1, 0, .AHEAD. ) ;
#243 = ORIENTED_EDGE ( 'NONE', *, *, #295, .T. ) ;
#244 = AXIS2_PLACEMENT_3D ( 'NONE', #167, #55, #203 ) ;
#245 = LOCAL_TIME ( 14, 26, 38.00000000000000000, #242 ) ;
#246 = VERTEX_POINT ( 'NONE', #99 ) ;
#247 = EDGE_LOOP ( 'NONE', ( #51, #188, #54, #198 ) ) ;
#248 = DIRECTION ( 'NONE',  ( 0.000000000000000000, 0.000000000000000000, -1.000000000000000000 ) ) ;
#249 = VERTEX_POINT ( 'NONE', #282 ) ;
#250 = CARTESIAN_POINT ( 'NONE',  ( 5.099999999999999645, 6.245698675651500839E-16, 5.200000000000009948 ) ) ;
#251 = EDGE_CURVE ( 'NONE', #90, #9, #81, .T. ) ;
#252 = AXIS2_PLACEMENT_3D ( 'NONE', #60, #153, #302 ) ;
#253 = ORIENTED_EDGE ( 'NONE', *, *, #216, .F. ) ;
#254 = LOCAL_TIME ( 14, 26, 38.00000000000000000, #135 ) ;
#255 = DIRECTION ( 'NONE',  ( 0.000000000000000000, 0.000000000000000000, 1.000000000000000000 ) ) ;
#256 = DIRECTION ( 'NONE',  ( -0.000000000000000000, -0.000000000000000000, -1.000000000000000000 ) ) ;
#257 = FACE_OUTER_BOUND ( 'NONE', #293, .T. ) ;
#258 = CC_DESIGN_PERSON_AND_ORGANIZATION_ASSIGNMENT ( #268, #219, ( #178 ) ) ;
#259 = CARTESIAN_POINT ( 'NONE',  ( 0.000000000000000000, 0.000000000000000000, 5.000000000000000000 ) ) ;
#260 = CARTESIAN_POINT ( 'NONE',  ( -5.099999999999999645, 0.000000000000000000, 5.200000000000009948 ) ) ;
#261 = CC_DESIGN_PERSON_AND_ORGANIZATION_ASSIGNMENT ( #240, #45, ( #178 ) ) ;
#262 =( LENGTH_UNIT ( ) NAMED_UNIT ( * ) SI_UNIT ( .MILLI., .METRE. ) );
#263 = ADVANCED_FACE ( 'NONE', ( #102, #284 ), #59, .T. ) ;
#264 = COORDINATED_UNIVERSAL_TIME_OFFSET ( 1, 0, .AHEAD. ) ;
#265 = AXIS2_PLACEMENT_3D ( 'NONE', #101, #19, #286 ) ;
#266 = LOCAL_TIME ( 14, 26, 38.00000000000000000, #131 ) ;
#267 = DATE_AND_TIME ( #86, #211 ) ;
#268 = PERSON_AND_ORGANIZATION ( #20, #183 ) ;
#269 = ORIENTED_EDGE ( 'NONE', *, *, #189, .T. ) ;
#270 = DATE_TIME_ROLE ( 'classification_date' ) ;
#271 = TOROIDAL_SURFACE ( 'NONE', #209, 5.299999999999998934, 0.2000000000000000111 ) ;
#272 = ORIENTED_EDGE ( 'NONE', *, *, #164, .F. ) ;
#273 = ORIENTED_EDGE ( 'NONE', *, *, #304, .F. ) ;
#274 = CARTESIAN_POINT ( 'NONE',  ( 0.000000000000000000, 0.000000000000000000, 5.200000000000009948 ) ) ;
#275 = EDGE_CURVE ( 'NONE', #224, #246, #67, .T. ) ;
#276 = EDGE_LOOP ( 'NONE', ( #70, #25 ) ) ;
#277 = LINE ( 'NONE', #119, #187 ) ;
#278 = ORIENTED_EDGE ( 'NONE', *, *, #18, .T. ) ;
#279 = DIRECTION ( 'NONE',  ( -0.000000000000000000, -0.000000000000000000, -1.000000000000000000 ) ) ;
#280 = AXIS2_PLACEMENT_3D ( 'NONE', #259, #126, #208 ) ;
#281 = DIRECTION ( 'NONE',  ( -0.000000000000000000, -0.000000000000000000, -1.000000000000000000 ) ) ;
#282 = CARTESIAN_POINT ( 'NONE',  ( 5.299999999999998934, 0.000000000000000000, 5.000000000000005329 ) ) ;
#283 = DIRECTION ( 'NONE',  ( 0.000000000000000000, 0.000000000000000000, 1.000000000000000000 ) ) ;
#284 = FACE_OUTER_BOUND ( 'NONE', #276, .T. ) ;
#285 = EDGE_CURVE ( 'NONE', #113, #224, #104, .T. ) ;
#286 = DIRECTION ( 'NONE',  ( 1.000000000000000000, 0.000000000000000000, 0.000000000000000000 ) ) ;
#287 = CIRCLE ( 'NONE', #120, 5.099999999999999645 ) ;
#288 = APPROVAL ( #290, 'NEURÈENÝ' ) ;
#289 = AXIS2_PLACEMENT_3D ( 'NONE', #103, #123, #154 ) ;
#290 = APPROVAL_STATUS ( 'not_yet_approved' ) ;
#291 = EDGE_LOOP ( 'NONE', ( #220, #243, #138, #71 ) ) ;
#292 = AXIS2_PLACEMENT_3D ( 'NONE', #96, #52, #248 ) ;
#293 = EDGE_LOOP ( 'NONE', ( #5, #169 ) ) ;
#294 = CARTESIAN_POINT ( 'NONE',  ( -8.000000000000000000, 0.000000000000000000, 0.000000000000000000 ) ) ;
#295 = EDGE_CURVE ( 'NONE', #9, #113, #305, .T. ) ;
#296 = LINE ( 'NONE', #145, #168 ) ;
#297 = CARTESIAN_POINT ( 'NONE',  ( 0.000000000000000000, 0.000000000000000000, 5.000000000000000000 ) ) ;
#298 = ORIENTED_EDGE ( 'NONE', *, *, #18, .F. ) ;
#299 = CARTESIAN_POINT ( 'NONE',  ( 8.000000000000000000, 9.797174393178825657E-16, 5.000000000000000000 ) ) ;
#300 = CARTESIAN_POINT ( 'NONE',  ( 0.000000000000000000, 0.000000000000000000, 205.0000000000000284 ) ) ;
#301 = CC_DESIGN_APPROVAL ( #92, ( #63 ) ) ;
#302 = DIRECTION ( 'NONE',  ( -1.000000000000000000, 1.224646799147353454E-16, 0.000000000000000000 ) ) ;
#303 = DIRECTION ( 'NONE',  ( -0.000000000000000000, -0.000000000000000000, -1.000000000000000000 ) ) ;
#304 = EDGE_CURVE ( 'NONE', #224, #113, #287, .T. ) ;
#305 = LINE ( 'NONE', #80, #149 ) ;
#306 = CC_DESIGN_PERSON_AND_ORGANIZATION_ASSIGNMENT ( #69, #137, ( #201 ) ) ;
#307 = AXIS2_PLACEMENT_3D ( 'NONE', #230, #279, #91 ) ;
ENDSEC;
END-ISO-10303-21;
