ISO-10303-21;
HEADER;
FILE_DESCRIPTION (( 'STEP AP203' ),
    '1' );
FILE_NAME ('8382.STEP',
    '2022-07-07T12:24:02',
    ( '' ),
    ( '' ),
    'SwSTEP 2.0',
    'SolidWorks 2019',
    '' );
FILE_SCHEMA (( 'CONFIG_CONTROL_DESIGN' ));
ENDSEC;

DATA;
#1 = PERSON_AND_ORGANIZATION ( #15, #257 ) ;
#2 = ORIENTED_EDGE ( 'NONE', *, *, #164, .T. ) ;
#3 = PERSON_AND_ORGANIZATION_ROLE ( 'creator' ) ;
#4 = EDGE_CURVE ( 'NONE', #80, #298, #36, .T. ) ;
#5 = PLANE ( 'NONE',  #281 ) ;
#6 = CARTESIAN_POINT ( 'NONE',  ( 0.000000000000000000, 0.000000000000000000, 7.199999999999998401 ) ) ;
#7 = CC_DESIGN_PERSON_AND_ORGANIZATION_ASSIGNMENT ( #134, #244, ( #163 ) ) ;
#8 = TOROIDAL_SURFACE ( 'NONE', #160, 6.200000000000001066, 0.2000000000000000111 ) ;
#9 = CARTESIAN_POINT ( 'NONE',  ( 0.000000000000000000, 0.000000000000000000, 7.000000000000000000 ) ) ;
#10 = DIRECTION ( 'NONE',  ( 0.000000000000000000, 0.000000000000000000, 1.000000000000000000 ) ) ;
#11 = DIRECTION ( 'NONE',  ( -0.000000000000000000, -0.000000000000000000, -1.000000000000000000 ) ) ;
#12 = CARTESIAN_POINT ( 'NONE',  ( 0.000000000000000000, 0.000000000000000000, 132.0000000000000000 ) ) ;
#13 = CC_DESIGN_DATE_AND_TIME_ASSIGNMENT ( #180, #200, ( #163 ) ) ;
#14 = PLANE ( 'NONE',  #47 ) ;
#15 = PERSON ( 'NEURÈENÝ', 'NEURÈENÝ', 'NEURÈENÝ', ('NEURÈENÝ'), ('NEURÈENÝ'), ('NEURÈENÝ') ) ;
#16 = CARTESIAN_POINT ( 'NONE',  ( 0.000000000000000000, 0.000000000000000000, 7.199999999999998401 ) ) ;
#17 = CC_DESIGN_APPROVAL ( #54, ( #163 ) ) ;
#18 = DIRECTION ( 'NONE',  ( -0.000000000000000000, -0.000000000000000000, -1.000000000000000000 ) ) ;
#19 = ADVANCED_FACE ( 'NONE', ( #162 ), #270, .T. ) ;
#20 = EDGE_CURVE ( 'NONE', #100, #204, #213, .T. ) ;
#21 = LINE ( 'NONE', #168, #118 ) ;
#22 = DESIGN_CONTEXT ( 'detailed design', #60, 'design' ) ;
#23 = COORDINATED_UNIVERSAL_TIME_OFFSET ( 1, 0, .AHEAD. ) ;
#24 = CALENDAR_DATE ( 2022, 7, 7 ) ;
#25 = AXIS2_PLACEMENT_3D ( 'NONE', #274, #138, #184 ) ;
#26 = APPLICATION_PROTOCOL_DEFINITION ( 'international standard', 'config_control_design', 1994, #109 ) ;
#27 = PRODUCT ( '8382', '8382', '', ( #132 ) ) ;
#28 = EDGE_LOOP ( 'NONE', ( #108, #126 ) ) ;
#29 = DATE_AND_TIME ( #307, #106 ) ;
#30 = CC_DESIGN_PERSON_AND_ORGANIZATION_ASSIGNMENT ( #306, #3, ( #223 ) ) ;
#31 = ORIENTED_EDGE ( 'NONE', *, *, #4, .T. ) ;
#32 = VECTOR ( 'NONE', #34, 1000.000000000000000 ) ;
#33 = ORIENTED_EDGE ( 'NONE', *, *, #84, .T. ) ;
#34 = DIRECTION ( 'NONE',  ( -0.000000000000000000, -0.000000000000000000, -1.000000000000000000 ) ) ;
#35 = MANIFOLD_SOLID_BREP ( 'Zaoblit1', #186 ) ;
#36 = CIRCLE ( 'NONE', #25, 6.000000000000000888 ) ;
#37 = APPROVAL_PERSON_ORGANIZATION ( #268, #112, #284 ) ;
#38 = CARTESIAN_POINT ( 'NONE',  ( -9.000000000000000000, 0.000000000000000000, 7.000000000000000000 ) ) ;
#39 = CARTESIAN_POINT ( 'NONE',  ( -6.000000000000000888, 0.000000000000000000, 132.0000000000000000 ) ) ;
#40 = APPROVAL ( #52, 'NEURÈENÝ' ) ;
#41 = FACE_BOUND ( 'NONE', #207, .T. ) ;
#42 = DIRECTION ( 'NONE',  ( 0.000000000000000000, 0.000000000000000000, 1.000000000000000000 ) ) ;
#43 = AXIS2_PLACEMENT_3D ( 'NONE', #69, #294, #117 ) ;
#44 = DIRECTION ( 'NONE',  ( 1.000000000000000000, 0.000000000000000000, 0.000000000000000000 ) ) ;
#45 = FACE_OUTER_BOUND ( 'NONE', #248, .T. ) ;
#46 = CARTESIAN_POINT ( 'NONE',  ( -6.200000000000001066, 7.592810154713590821E-16, 7.199999999999998401 ) ) ;
#47 = AXIS2_PLACEMENT_3D ( 'NONE', #217, #73, #193 ) ;
#48 = ORIENTED_EDGE ( 'NONE', *, *, #147, .T. ) ;
#49 = DIRECTION ( 'NONE',  ( 1.000000000000000000, 0.000000000000000000, 0.000000000000000000 ) ) ;
#50 = ADVANCED_BREP_SHAPE_REPRESENTATION ( '8382', ( #35, #82 ), #77 ) ;
#51 = PERSON_AND_ORGANIZATION_ROLE ( 'classification_officer' ) ;
#52 = APPROVAL_STATUS ( 'not_yet_approved' ) ;
#53 = EDGE_CURVE ( 'NONE', #114, #298, #161, .T. ) ;
#54 = APPROVAL ( #249, 'NEURÈENÝ' ) ;
#55 = CALENDAR_DATE ( 2022, 7, 7 ) ;
#56 = ORIENTED_EDGE ( 'NONE', *, *, #224, .F. ) ;
#57 = CARTESIAN_POINT ( 'NONE',  ( 0.000000000000000000, 0.000000000000000000, 0.000000000000000000 ) ) ;
#58 = ORIENTED_EDGE ( 'NONE', *, *, #192, .F. ) ;
#59 = DIRECTION ( 'NONE',  ( -0.000000000000000000, -0.000000000000000000, -1.000000000000000000 ) ) ;
#60 = APPLICATION_CONTEXT ( 'configuration controlled 3d designs of mechanical parts and assemblies' ) ;
#61 = CIRCLE ( 'NONE', #103, 6.200000000000001066 ) ;
#62 = CARTESIAN_POINT ( 'NONE',  ( 0.000000000000000000, 0.000000000000000000, 0.000000000000000000 ) ) ;
#63 = CC_DESIGN_PERSON_AND_ORGANIZATION_ASSIGNMENT ( #1, #286, ( #27 ) ) ;
#64 = EDGE_LOOP ( 'NONE', ( #269, #232, #299, #75 ) ) ;
#65 = EDGE_LOOP ( 'NONE', ( #89, #167, #252, #290 ) ) ;
#66 = APPROVAL_PERSON_ORGANIZATION ( #289, #40, #152 ) ;
#67 = CIRCLE ( 'NONE', #199, 6.200000000000001066 ) ;
#68 = LOCAL_TIME ( 14, 24, 2.000000000000000000, #205 ) ;
#69 = CARTESIAN_POINT ( 'NONE',  ( 0.000000000000000000, 0.000000000000000000, 132.0000000000000000 ) ) ;
#70 = DIRECTION ( 'NONE',  ( 1.000000000000000000, 0.000000000000000000, 0.000000000000000000 ) ) ;
#71 = DIRECTION ( 'NONE',  ( 1.000000000000000000, 0.000000000000000000, 0.000000000000000000 ) ) ;
#72 = CIRCLE ( 'NONE', #222, 0.1999999999999996503 ) ;
#73 = DIRECTION ( 'NONE',  ( 0.000000000000000000, 0.000000000000000000, 1.000000000000000000 ) ) ;
#74 = FACE_OUTER_BOUND ( 'NONE', #187, .T. ) ;
#75 = ORIENTED_EDGE ( 'NONE', *, *, #144, .F. ) ;
#76 = CARTESIAN_POINT ( 'NONE',  ( 0.000000000000000000, 0.000000000000000000, 0.000000000000000000 ) ) ;
#77 =( GEOMETRIC_REPRESENTATION_CONTEXT ( 3 ) GLOBAL_UNCERTAINTY_ASSIGNED_CONTEXT ( ( #150 ) ) GLOBAL_UNIT_ASSIGNED_CONTEXT ( ( #155, #247, #133 ) ) REPRESENTATION_CONTEXT ( 'NONE', 'WORKASPACE' ) );
#78 = PERSON_AND_ORGANIZATION ( #15, #257 ) ;
#79 = APPROVAL_DATE_TIME ( #29, #54 ) ;
#80 = VERTEX_POINT ( 'NONE', #140 ) ;
#81 = AXIS2_PLACEMENT_3D ( 'NONE', #12, #141, #121 ) ;
#82 = AXIS2_PLACEMENT_3D ( 'NONE', #57, #246, #49 ) ;
#83 = APPROVAL_DATE_TIME ( #104, #40 ) ;
#84 = EDGE_CURVE ( 'NONE', #188, #204, #216, .T. ) ;
#85 = CARTESIAN_POINT ( 'NONE',  ( -6.200000000000001066, 7.592810154713590821E-16, 6.999999999999999112 ) ) ;
#86 = CIRCLE ( 'NONE', #123, 6.000000000000000888 ) ;
#87 = DIRECTION ( 'NONE',  ( 1.000000000000000000, 0.000000000000000000, 0.000000000000000000 ) ) ;
#88 = VERTEX_POINT ( 'NONE', #233 ) ;
#89 = ORIENTED_EDGE ( 'NONE', *, *, #4, .F. ) ;
#90 = AXIS2_PLACEMENT_3D ( 'NONE', #76, #196, #279 ) ;
#91 = DIRECTION ( 'NONE',  ( -0.000000000000000000, -0.000000000000000000, -1.000000000000000000 ) ) ;
#92 = CYLINDRICAL_SURFACE ( 'NONE', #139, 6.000000000000000888 ) ;
#93 = DIRECTION ( 'NONE',  ( 0.000000000000000000, 0.000000000000000000, 1.000000000000000000 ) ) ;
#94 = ADVANCED_FACE ( 'NONE', ( #159 ), #5, .F. ) ;
#95 = CIRCLE ( 'NONE', #153, 6.000000000000000888 ) ;
#96 = DIRECTION ( 'NONE',  ( 1.000000000000000000, 0.000000000000000000, 0.000000000000000000 ) ) ;
#97 = LOCAL_TIME ( 14, 24, 2.000000000000000000, #245 ) ;
#98 = PRODUCT_DEFINITION_SHAPE ( 'NONE', 'NONE',  #163 ) ;
#99 = DIRECTION ( 'NONE',  ( 1.000000000000000000, 0.000000000000000000, 0.000000000000000000 ) ) ;
#100 = VERTEX_POINT ( 'NONE', #110 ) ;
#101 = APPLICATION_PROTOCOL_DEFINITION ( 'international standard', 'config_control_design', 1994, #60 ) ;
#102 = APPROVAL_ROLE ( '' ) ;
#103 = AXIS2_PLACEMENT_3D ( 'NONE', #239, #18, #96 ) ;
#104 = DATE_AND_TIME ( #229, #97 ) ;
#105 = DATE_AND_TIME ( #24, #68 ) ;
#106 = LOCAL_TIME ( 14, 24, 2.000000000000000000, #203 ) ;
#107 = SECURITY_CLASSIFICATION ( '', '', #266 ) ;
#108 = ORIENTED_EDGE ( 'NONE', *, *, #224, .T. ) ;
#109 = APPLICATION_CONTEXT ( 'configuration controlled 3d designs of mechanical parts and assemblies' ) ;
#110 = CARTESIAN_POINT ( 'NONE',  ( -9.000000000000000000, 0.000000000000000000, 7.000000000000000000 ) ) ;
#111 = EDGE_CURVE ( 'NONE', #298, #88, #72, .T. ) ;
#112 = APPROVAL ( #285, 'NEURÈENÝ' ) ;
#113 = DIRECTION ( 'NONE',  ( 0.000000000000000000, 0.000000000000000000, 1.000000000000000000 ) ) ;
#114 = VERTEX_POINT ( 'NONE', #234 ) ;
#115 = DIRECTION ( 'NONE',  ( 1.000000000000000000, 0.000000000000000000, -0.000000000000000000 ) ) ;
#116 = ADVANCED_FACE ( 'NONE', ( #276 ), #210, .T. ) ;
#117 = DIRECTION ( 'NONE',  ( -1.000000000000000000, 0.000000000000000000, 0.000000000000000000 ) ) ;
#118 = VECTOR ( 'NONE', #91, 1000.000000000000000 ) ;
#119 = DIRECTION ( 'NONE',  ( 0.000000000000000000, 0.000000000000000000, 1.000000000000000000 ) ) ;
#120 = CARTESIAN_POINT ( 'NONE',  ( 0.000000000000000000, 0.000000000000000000, 7.000000000000000000 ) ) ;
#121 = DIRECTION ( 'NONE',  ( 1.000000000000000000, 0.000000000000000000, -0.000000000000000000 ) ) ;
#122 = VERTEX_POINT ( 'NONE', #39 ) ;
#123 = AXIS2_PLACEMENT_3D ( 'NONE', #283, #220, #238 ) ;
#124 = CARTESIAN_POINT ( 'NONE',  ( -6.000000000000000888, 0.000000000000000000, 132.0000000000000000 ) ) ;
#125 = LOCAL_TIME ( 14, 24, 2.000000000000000000, #198 ) ;
#126 = ORIENTED_EDGE ( 'NONE', *, *, #190, .T. ) ;
#127 = ADVANCED_FACE ( 'NONE', ( #211 ), #131, .F. ) ;
#128 = DIRECTION ( 'NONE',  ( 1.000000000000000000, 0.000000000000000000, 0.000000000000000000 ) ) ;
#129 = CC_DESIGN_PERSON_AND_ORGANIZATION_ASSIGNMENT ( #78, #177, ( #223 ) ) ;
#130 = CALENDAR_DATE ( 2022, 7, 7 ) ;
#131 = TOROIDAL_SURFACE ( 'NONE', #251, 6.200000000000001066, 0.2000000000000000111 ) ;
#132 = MECHANICAL_CONTEXT ( 'NONE', #109, 'mechanical' ) ;
#133 =( NAMED_UNIT ( * ) SI_UNIT ( $, .STERADIAN. ) SOLID_ANGLE_UNIT ( ) );
#134 = PERSON_AND_ORGANIZATION ( #15, #257 ) ;
#135 = CIRCLE ( 'NONE', #90, 9.000000000000000000 ) ;
#136 = DIRECTION ( 'NONE',  ( 0.000000000000000000, 0.000000000000000000, 1.000000000000000000 ) ) ;
#137 = VERTEX_POINT ( 'NONE', #85 ) ;
#138 = DIRECTION ( 'NONE',  ( 0.000000000000000000, 0.000000000000000000, 1.000000000000000000 ) ) ;
#139 = AXIS2_PLACEMENT_3D ( 'NONE', #171, #304, #173 ) ;
#140 = CARTESIAN_POINT ( 'NONE',  ( -6.000000000000000888, 0.000000000000000000, 7.199999999999998401 ) ) ;
#141 = DIRECTION ( 'NONE',  ( 0.000000000000000000, 0.000000000000000000, 1.000000000000000000 ) ) ;
#142 = AXIS2_PLACEMENT_3D ( 'NONE', #226, #93, #44 ) ;
#143 = FACE_OUTER_BOUND ( 'NONE', #64, .T. ) ;
#144 = EDGE_CURVE ( 'NONE', #122, #80, #273, .T. ) ;
#145 = CARTESIAN_POINT ( 'NONE',  ( -9.000000000000000000, 0.000000000000000000, 0.000000000000000000 ) ) ;
#146 = PLANE ( 'NONE',  #81 ) ;
#147 = EDGE_CURVE ( 'NONE', #303, #188, #21, .T. ) ;
#148 = CIRCLE ( 'NONE', #277, 0.1999999999999996503 ) ;
#149 = ORIENTED_EDGE ( 'NONE', *, *, #111, .T. ) ;
#150 = UNCERTAINTY_MEASURE_WITH_UNIT (LENGTH_MEASURE( 1.000000000000000082E-05 ), #155, 'distance_accuracy_value', 'NONE');
#151 = ADVANCED_FACE ( 'NONE', ( #41, #170 ), #14, .T. ) ;
#152 = APPROVAL_ROLE ( '' ) ;
#153 = AXIS2_PLACEMENT_3D ( 'NONE', #260, #278, #70 ) ;
#154 = CC_DESIGN_APPROVAL ( #112, ( #223 ) ) ;
#155 =( LENGTH_UNIT ( ) NAMED_UNIT ( * ) SI_UNIT ( .MILLI., .METRE. ) );
#156 = ORIENTED_EDGE ( 'NONE', *, *, #291, .T. ) ;
#157 = PERSON_AND_ORGANIZATION ( #15, #257 ) ;
#158 = ORIENTED_EDGE ( 'NONE', *, *, #201, .F. ) ;
#159 = FACE_OUTER_BOUND ( 'NONE', #263, .T. ) ;
#160 = AXIS2_PLACEMENT_3D ( 'NONE', #16, #42, #128 ) ;
#161 = LINE ( 'NONE', #254, #32 ) ;
#162 = FACE_OUTER_BOUND ( 'NONE', #253, .T. ) ;
#163 = PRODUCT_DEFINITION ( 'NEZNÁMÝ', '', #223, #22 ) ;
#164 = EDGE_CURVE ( 'NONE', #204, #188, #135, .T. ) ;
#165 = ORIENTED_EDGE ( 'NONE', *, *, #20, .T. ) ;
#166 = CIRCLE ( 'NONE', #195, 9.000000000000000000 ) ;
#167 = ORIENTED_EDGE ( 'NONE', *, *, #201, .T. ) ;
#168 = CARTESIAN_POINT ( 'NONE',  ( 9.000000000000000000, 1.102182119232617714E-15, 7.000000000000000000 ) ) ;
#169 = DIRECTION ( 'NONE',  ( -0.000000000000000000, -0.000000000000000000, -1.000000000000000000 ) ) ;
#170 = FACE_OUTER_BOUND ( 'NONE', #28, .T. ) ;
#171 = CARTESIAN_POINT ( 'NONE',  ( 0.000000000000000000, 0.000000000000000000, 132.0000000000000000 ) ) ;
#172 = ORIENTED_EDGE ( 'NONE', *, *, #53, .F. ) ;
#173 = DIRECTION ( 'NONE',  ( -1.000000000000000000, 0.000000000000000000, 0.000000000000000000 ) ) ;
#174 = CC_DESIGN_SECURITY_CLASSIFICATION ( #107, ( #223 ) ) ;
#175 = AXIS2_PLACEMENT_3D ( 'NONE', #9, #59, #185 ) ;
#176 = CC_DESIGN_APPROVAL ( #40, ( #107 ) ) ;
#177 = PERSON_AND_ORGANIZATION_ROLE ( 'design_supplier' ) ;
#178 = ADVANCED_FACE ( 'NONE', ( #300 ), #146, .T. ) ;
#179 = DATE_TIME_ROLE ( 'classification_date' ) ;
#180 = DATE_AND_TIME ( #130, #125 ) ;
#181 = ORIENTED_EDGE ( 'NONE', *, *, #144, .T. ) ;
#182 = ORIENTED_EDGE ( 'NONE', *, *, #291, .F. ) ;
#183 = CC_DESIGN_DATE_AND_TIME_ASSIGNMENT ( #105, #179, ( #107 ) ) ;
#184 = DIRECTION ( 'NONE',  ( 1.000000000000000000, 0.000000000000000000, 0.000000000000000000 ) ) ;
#185 = DIRECTION ( 'NONE',  ( -1.000000000000000000, 0.000000000000000000, 0.000000000000000000 ) ) ;
#186 = CLOSED_SHELL ( 'NONE', ( #127, #212, #19, #261, #151, #94, #116, #178, #202 ) ) ;
#187 = EDGE_LOOP ( 'NONE', ( #158, #58, #149, #182 ) ) ;
#188 = VERTEX_POINT ( 'NONE', #225 ) ;
#189 = DIRECTION ( 'NONE',  ( 0.000000000000000000, -1.000000000000000000, 0.000000000000000000 ) ) ;
#190 = EDGE_CURVE ( 'NONE', #303, #100, #231, .T. ) ;
#191 = AXIS2_PLACEMENT_3D ( 'NONE', #62, #136, #236 ) ;
#192 = EDGE_CURVE ( 'NONE', #298, #80, #95, .T. ) ;
#193 = DIRECTION ( 'NONE',  ( 1.000000000000000000, 0.000000000000000000, -0.000000000000000000 ) ) ;
#194 = DIRECTION ( 'NONE',  ( 0.000000000000000000, 0.000000000000000000, 1.000000000000000000 ) ) ;
#195 = AXIS2_PLACEMENT_3D ( 'NONE', #282, #194, #302 ) ;
#196 = DIRECTION ( 'NONE',  ( 0.000000000000000000, 0.000000000000000000, 1.000000000000000000 ) ) ;
#197 = CARTESIAN_POINT ( 'NONE',  ( 9.000000000000000000, 1.102182119232617714E-15, 7.000000000000000000 ) ) ;
#198 = COORDINATED_UNIVERSAL_TIME_OFFSET ( 1, 0, .AHEAD. ) ;
#199 = AXIS2_PLACEMENT_3D ( 'NONE', #301, #169, #99 ) ;
#200 = DATE_TIME_ROLE ( 'creation_date' ) ;
#201 = EDGE_CURVE ( 'NONE', #80, #137, #148, .T. ) ;
#202 = ADVANCED_FACE ( 'NONE', ( #74 ), #8, .F. ) ;
#203 = COORDINATED_UNIVERSAL_TIME_OFFSET ( 1, 0, .AHEAD. ) ;
#204 = VERTEX_POINT ( 'NONE', #145 ) ;
#205 = COORDINATED_UNIVERSAL_TIME_OFFSET ( 1, 0, .AHEAD. ) ;
#206 = AXIS2_PLACEMENT_3D ( 'NONE', #120, #262, #240 ) ;
#207 = EDGE_LOOP ( 'NONE', ( #235, #156 ) ) ;
#208 = EDGE_LOOP ( 'NONE', ( #172, #243, #181, #31 ) ) ;
#209 = EDGE_CURVE ( 'NONE', #114, #122, #86, .T. ) ;
#210 = CYLINDRICAL_SURFACE ( 'NONE', #43, 6.000000000000000888 ) ;
#211 = FACE_OUTER_BOUND ( 'NONE', #65, .T. ) ;
#212 = ADVANCED_FACE ( 'NONE', ( #143 ), #92, .T. ) ;
#213 = LINE ( 'NONE', #38, #256 ) ;
#214 = ORIENTED_EDGE ( 'NONE', *, *, #219, .T. ) ;
#215 = DIRECTION ( 'NONE',  ( 0.000000000000000000, 0.000000000000000000, -1.000000000000000000 ) ) ;
#216 = CIRCLE ( 'NONE', #191, 9.000000000000000000 ) ;
#217 = CARTESIAN_POINT ( 'NONE',  ( 0.000000000000000000, 0.000000000000000000, 7.000000000000000000 ) ) ;
#218 = CYLINDRICAL_SURFACE ( 'NONE', #206, 9.000000000000000000 ) ;
#219 = EDGE_CURVE ( 'NONE', #122, #114, #288, .T. ) ;
#220 = DIRECTION ( 'NONE',  ( 0.000000000000000000, 0.000000000000000000, 1.000000000000000000 ) ) ;
#221 = ORIENTED_EDGE ( 'NONE', *, *, #190, .F. ) ;
#222 = AXIS2_PLACEMENT_3D ( 'NONE', #296, #189, #215 ) ;
#223 = PRODUCT_DEFINITION_FORMATION_WITH_SPECIFIED_SOURCE ( 'LIBOVOLNÝ', '', #27, .NOT_KNOWN. ) ;
#224 = EDGE_CURVE ( 'NONE', #100, #303, #166, .T. ) ;
#225 = CARTESIAN_POINT ( 'NONE',  ( 9.000000000000000000, 1.102182119232617714E-15, 0.000000000000000000 ) ) ;
#226 = CARTESIAN_POINT ( 'NONE',  ( 0.000000000000000000, 0.000000000000000000, 132.0000000000000000 ) ) ;
#227 = DATE_AND_TIME ( #55, #275 ) ;
#228 = AXIS2_PLACEMENT_3D ( 'NONE', #259, #119, #71 ) ;
#229 = CALENDAR_DATE ( 2022, 7, 7 ) ;
#230 = APPROVAL_DATE_TIME ( #227, #112 ) ;
#231 = CIRCLE ( 'NONE', #228, 9.000000000000000000 ) ;
#232 = ORIENTED_EDGE ( 'NONE', *, *, #53, .T. ) ;
#233 = CARTESIAN_POINT ( 'NONE',  ( 6.200000000000001066, 0.000000000000000000, 6.999999999999999112 ) ) ;
#234 = CARTESIAN_POINT ( 'NONE',  ( 6.000000000000000888, 7.347880794884120722E-16, 132.0000000000000000 ) ) ;
#235 = ORIENTED_EDGE ( 'NONE', *, *, #265, .T. ) ;
#236 = DIRECTION ( 'NONE',  ( 1.000000000000000000, 0.000000000000000000, 0.000000000000000000 ) ) ;
#237 = ORIENTED_EDGE ( 'NONE', *, *, #209, .T. ) ;
#238 = DIRECTION ( 'NONE',  ( 1.000000000000000000, 0.000000000000000000, 0.000000000000000000 ) ) ;
#239 = CARTESIAN_POINT ( 'NONE',  ( 0.000000000000000000, 0.000000000000000000, 7.000000000000000000 ) ) ;
#240 = DIRECTION ( 'NONE',  ( -1.000000000000000000, 0.000000000000000000, 0.000000000000000000 ) ) ;
#241 = DIRECTION ( 'NONE',  ( -1.000000000000000000, 1.224646799147353454E-16, 0.000000000000000000 ) ) ;
#242 = DIRECTION ( 'NONE',  ( -0.000000000000000000, -0.000000000000000000, -1.000000000000000000 ) ) ;
#243 = ORIENTED_EDGE ( 'NONE', *, *, #219, .F. ) ;
#244 = PERSON_AND_ORGANIZATION_ROLE ( 'creator' ) ;
#245 = COORDINATED_UNIVERSAL_TIME_OFFSET ( 1, 0, .AHEAD. ) ;
#246 = DIRECTION ( 'NONE',  ( 0.000000000000000000, 0.000000000000000000, 1.000000000000000000 ) ) ;
#247 =( NAMED_UNIT ( * ) PLANE_ANGLE_UNIT ( ) SI_UNIT ( $, .RADIAN. ) );
#248 = EDGE_LOOP ( 'NONE', ( #255, #56, #165, #2 ) ) ;
#249 = APPROVAL_STATUS ( 'not_yet_approved' ) ;
#250 = APPROVAL_PERSON_ORGANIZATION ( #157, #54, #102 ) ;
#251 = AXIS2_PLACEMENT_3D ( 'NONE', #6, #113, #87 ) ;
#252 = ORIENTED_EDGE ( 'NONE', *, *, #265, .F. ) ;
#253 = EDGE_LOOP ( 'NONE', ( #221, #48, #33, #305 ) ) ;
#254 = CARTESIAN_POINT ( 'NONE',  ( 6.000000000000000888, 7.347880794884120722E-16, 132.0000000000000000 ) ) ;
#255 = ORIENTED_EDGE ( 'NONE', *, *, #147, .F. ) ;
#256 = VECTOR ( 'NONE', #11, 1000.000000000000000 ) ;
#257 = ORGANIZATION ( 'NEURÈENÝ', 'NEURÈENÝ', '' ) ;
#258 = DIRECTION ( 'NONE',  ( 1.224646799147353207E-16, 1.000000000000000000, -0.000000000000000000 ) ) ;
#259 = CARTESIAN_POINT ( 'NONE',  ( 0.000000000000000000, 0.000000000000000000, 7.000000000000000000 ) ) ;
#260 = CARTESIAN_POINT ( 'NONE',  ( 0.000000000000000000, 0.000000000000000000, 7.199999999999998401 ) ) ;
#261 = ADVANCED_FACE ( 'NONE', ( #45 ), #218, .T. ) ;
#262 = DIRECTION ( 'NONE',  ( -0.000000000000000000, -0.000000000000000000, -1.000000000000000000 ) ) ;
#263 = EDGE_LOOP ( 'NONE', ( #287, #297 ) ) ;
#264 = EDGE_LOOP ( 'NONE', ( #214, #237 ) ) ;
#265 = EDGE_CURVE ( 'NONE', #88, #137, #67, .T. ) ;
#266 = SECURITY_CLASSIFICATION_LEVEL ( 'unclassified' ) ;
#267 = PERSON_AND_ORGANIZATION ( #15, #257 ) ;
#268 = PERSON_AND_ORGANIZATION ( #15, #257 ) ;
#269 = ORIENTED_EDGE ( 'NONE', *, *, #209, .F. ) ;
#270 = CYLINDRICAL_SURFACE ( 'NONE', #175, 9.000000000000000000 ) ;
#271 = SHAPE_DEFINITION_REPRESENTATION ( #98, #50 ) ;
#272 = CARTESIAN_POINT ( 'NONE',  ( 0.000000000000000000, 0.000000000000000000, 0.000000000000000000 ) ) ;
#273 = LINE ( 'NONE', #124, #295 ) ;
#274 = CARTESIAN_POINT ( 'NONE',  ( 0.000000000000000000, 0.000000000000000000, 7.199999999999998401 ) ) ;
#275 = LOCAL_TIME ( 14, 24, 2.000000000000000000, #23 ) ;
#276 = FACE_OUTER_BOUND ( 'NONE', #208, .T. ) ;
#277 = AXIS2_PLACEMENT_3D ( 'NONE', #46, #258, #241 ) ;
#278 = DIRECTION ( 'NONE',  ( 0.000000000000000000, 0.000000000000000000, 1.000000000000000000 ) ) ;
#279 = DIRECTION ( 'NONE',  ( 1.000000000000000000, 0.000000000000000000, 0.000000000000000000 ) ) ;
#280 = CARTESIAN_POINT ( 'NONE',  ( 6.000000000000000888, 7.347880794884120722E-16, 7.199999999999998401 ) ) ;
#281 = AXIS2_PLACEMENT_3D ( 'NONE', #272, #10, #115 ) ;
#282 = CARTESIAN_POINT ( 'NONE',  ( 0.000000000000000000, 0.000000000000000000, 7.000000000000000000 ) ) ;
#283 = CARTESIAN_POINT ( 'NONE',  ( 0.000000000000000000, 0.000000000000000000, 132.0000000000000000 ) ) ;
#284 = APPROVAL_ROLE ( '' ) ;
#285 = APPROVAL_STATUS ( 'not_yet_approved' ) ;
#286 = PERSON_AND_ORGANIZATION_ROLE ( 'design_owner' ) ;
#287 = ORIENTED_EDGE ( 'NONE', *, *, #164, .F. ) ;
#288 = CIRCLE ( 'NONE', #142, 6.000000000000000888 ) ;
#289 = PERSON_AND_ORGANIZATION ( #15, #257 ) ;
#290 = ORIENTED_EDGE ( 'NONE', *, *, #111, .F. ) ;
#291 = EDGE_CURVE ( 'NONE', #137, #88, #61, .T. ) ;
#292 = PRODUCT_RELATED_PRODUCT_CATEGORY ( 'detail', '', ( #27 ) ) ;
#293 = CC_DESIGN_PERSON_AND_ORGANIZATION_ASSIGNMENT ( #267, #51, ( #107 ) ) ;
#294 = DIRECTION ( 'NONE',  ( -0.000000000000000000, -0.000000000000000000, -1.000000000000000000 ) ) ;
#295 = VECTOR ( 'NONE', #242, 1000.000000000000000 ) ;
#296 = CARTESIAN_POINT ( 'NONE',  ( 6.200000000000001066, 0.000000000000000000, 7.199999999999998401 ) ) ;
#297 = ORIENTED_EDGE ( 'NONE', *, *, #84, .F. ) ;
#298 = VERTEX_POINT ( 'NONE', #280 ) ;
#299 = ORIENTED_EDGE ( 'NONE', *, *, #192, .T. ) ;
#300 = FACE_OUTER_BOUND ( 'NONE', #264, .T. ) ;
#301 = CARTESIAN_POINT ( 'NONE',  ( 0.000000000000000000, 0.000000000000000000, 7.000000000000000000 ) ) ;
#302 = DIRECTION ( 'NONE',  ( 1.000000000000000000, 0.000000000000000000, 0.000000000000000000 ) ) ;
#303 = VERTEX_POINT ( 'NONE', #197 ) ;
#304 = DIRECTION ( 'NONE',  ( -0.000000000000000000, -0.000000000000000000, -1.000000000000000000 ) ) ;
#305 = ORIENTED_EDGE ( 'NONE', *, *, #20, .F. ) ;
#306 = PERSON_AND_ORGANIZATION ( #15, #257 ) ;
#307 = CALENDAR_DATE ( 2022, 7, 7 ) ;
ENDSEC;
END-ISO-10303-21;
