ISO-10303-21;
HEADER;
FILE_DESCRIPTION (( 'STEP AP203' ),
    '1' );
FILE_NAME ('37cd.STEP',
    '2022-07-07T12:37:24',
    ( '' ),
    ( '' ),
    'SwSTEP 2.0',
    'SolidWorks 2019',
    '' );
FILE_SCHEMA (( 'CONFIG_CONTROL_DESIGN' ));
ENDSEC;

DATA;
#1 = EDGE_LOOP ( 'NONE', ( #59, #302, #85, #114 ) ) ;
#2 = EDGE_LOOP ( 'NONE', ( #164, #126, #167, #72 ) ) ;
#3 = EDGE_CURVE ( 'NONE', #156, #115, #127, .T. ) ;
#4 = DIRECTION ( 'NONE',  ( 1.224646799147353207E-16, 1.000000000000000000, -0.000000000000000000 ) ) ;
#5 = DIRECTION ( 'NONE',  ( -0.000000000000000000, -0.000000000000000000, -1.000000000000000000 ) ) ;
#6 = CARTESIAN_POINT ( 'NONE',  ( 0.000000000000000000, 0.000000000000000000, 255.0000000000000000 ) ) ;
#7 = CIRCLE ( 'NONE', #21, 6.000000000000000888 ) ;
#8 = CARTESIAN_POINT ( 'NONE',  ( 3.700000000000000178, 0.000000000000000000, 5.200000000000009948 ) ) ;
#9 = LOCAL_TIME ( 14, 37, 24.00000000000000000, #136 ) ;
#10 = DESIGN_CONTEXT ( 'detailed design', #171, 'design' ) ;
#11 = CARTESIAN_POINT ( 'NONE',  ( 3.500000000000000000, 4.286263797015736595E-16, 255.0000000000000000 ) ) ;
#12 = APPROVAL_DATE_TIME ( #207, #148 ) ;
#13 = APPROVAL_STATUS ( 'not_yet_approved' ) ;
#14 = PERSON_AND_ORGANIZATION ( #146, #41 ) ;
#15 = APPROVAL_ROLE ( '' ) ;
#16 = VERTEX_POINT ( 'NONE', #23 ) ;
#17 = EDGE_CURVE ( 'NONE', #141, #214, #7, .T. ) ;
#18 = ORIENTED_EDGE ( 'NONE', *, *, #43, .T. ) ;
#19 = LOCAL_TIME ( 14, 37, 24.00000000000000000, #297 ) ;
#20 = ORIENTED_EDGE ( 'NONE', *, *, #206, .T. ) ;
#21 = AXIS2_PLACEMENT_3D ( 'NONE', #49, #46, #143 ) ;
#22 = PLANE ( 'NONE',  #217 ) ;
#23 = CARTESIAN_POINT ( 'NONE',  ( 3.500000000000000000, 4.286263797015736595E-16, 255.0000000000000000 ) ) ;
#24 = CARTESIAN_POINT ( 'NONE',  ( 0.000000000000000000, 0.000000000000000000, 5.000000000000000000 ) ) ;
#25 = ADVANCED_FACE ( 'NONE', ( #120 ), #283, .T. ) ;
#26 = CARTESIAN_POINT ( 'NONE',  ( 0.000000000000000000, 0.000000000000000000, 0.000000000000000000 ) ) ;
#27 = CC_DESIGN_SECURITY_CLASSIFICATION ( #184, ( #258 ) ) ;
#28 = PLANE ( 'NONE',  #253 ) ;
#29 = DIRECTION ( 'NONE',  ( -1.000000000000000000, 0.000000000000000000, 0.000000000000000000 ) ) ;
#30 = CARTESIAN_POINT ( 'NONE',  ( 0.000000000000000000, 0.000000000000000000, 5.200000000000009948 ) ) ;
#31 = VECTOR ( 'NONE', #290, 1000.000000000000000 ) ;
#32 = DIRECTION ( 'NONE',  ( 0.000000000000000000, 0.000000000000000000, 1.000000000000000000 ) ) ;
#33 = CARTESIAN_POINT ( 'NONE',  ( 3.700000000000000178, 0.000000000000000000, 5.000000000000005329 ) ) ;
#34 = ADVANCED_FACE ( 'NONE', ( #284 ), #22, .F. ) ;
#35 = CC_DESIGN_PERSON_AND_ORGANIZATION_ASSIGNMENT ( #303, #92, ( #184 ) ) ;
#36 = PERSON_AND_ORGANIZATION_ROLE ( 'design_owner' ) ;
#37 = CIRCLE ( 'NONE', #229, 3.500000000000000000 ) ;
#38 = DATE_AND_TIME ( #227, #9 ) ;
#39 = EDGE_LOOP ( 'NONE', ( #193, #91 ) ) ;
#40 = CALENDAR_DATE ( 2022, 7, 7 ) ;
#41 = ORGANIZATION ( 'NEURÈENÝ', 'NEURÈENÝ', '' ) ;
#42 = VERTEX_POINT ( 'NONE', #95 ) ;
#43 = EDGE_CURVE ( 'NONE', #156, #141, #280, .T. ) ;
#44 = DIRECTION ( 'NONE',  ( -0.000000000000000000, -0.000000000000000000, -1.000000000000000000 ) ) ;
#45 = AXIS2_PLACEMENT_3D ( 'NONE', #169, #44, #235 ) ;
#46 = DIRECTION ( 'NONE',  ( 0.000000000000000000, 0.000000000000000000, 1.000000000000000000 ) ) ;
#47 = APPROVAL_PERSON_ORGANIZATION ( #228, #198, #111 ) ;
#48 = EDGE_CURVE ( 'NONE', #16, #236, #240, .T. ) ;
#49 = CARTESIAN_POINT ( 'NONE',  ( 0.000000000000000000, 0.000000000000000000, 0.000000000000000000 ) ) ;
#50 = UNCERTAINTY_MEASURE_WITH_UNIT (LENGTH_MEASURE( 1.000000000000000082E-05 ), #62, 'distance_accuracy_value', 'NONE');
#51 = EDGE_LOOP ( 'NONE', ( #68, #84, #63, #233 ) ) ;
#52 = DIRECTION ( 'NONE',  ( 0.000000000000000000, 0.000000000000000000, 1.000000000000000000 ) ) ;
#53 = LINE ( 'NONE', #155, #31 ) ;
#54 = DIRECTION ( 'NONE',  ( 1.000000000000000000, 0.000000000000000000, 0.000000000000000000 ) ) ;
#55 = DIRECTION ( 'NONE',  ( 1.000000000000000000, 0.000000000000000000, 0.000000000000000000 ) ) ;
#56 = CARTESIAN_POINT ( 'NONE',  ( 0.000000000000000000, 0.000000000000000000, 5.200000000000009948 ) ) ;
#57 = ADVANCED_FACE ( 'NONE', ( #285 ), #305, .T. ) ;
#58 = DATE_TIME_ROLE ( 'classification_date' ) ;
#59 = ORIENTED_EDGE ( 'NONE', *, *, #112, .F. ) ;
#61 = ADVANCED_FACE ( 'NONE', ( #188, #67 ), #259, .T. ) ;
#60 = VECTOR ( 'NONE', #128, 1000.000000000000000 ) ;
#62 =( LENGTH_UNIT ( ) NAMED_UNIT ( * ) SI_UNIT ( .MILLI., .METRE. ) );
#63 = ORIENTED_EDGE ( 'NONE', *, *, #86, .T. ) ;
#64 = APPROVAL_ROLE ( '' ) ;
#65 = ORIENTED_EDGE ( 'NONE', *, *, #17, .T. ) ;
#66 = COORDINATED_UNIVERSAL_TIME_OFFSET ( 1, 0, .AHEAD. ) ;
#67 = FACE_OUTER_BOUND ( 'NONE', #185, .T. ) ;
#68 = ORIENTED_EDGE ( 'NONE', *, *, #117, .F. ) ;
#69 = ORIENTED_EDGE ( 'NONE', *, *, #48, .F. ) ;
#70 = EDGE_CURVE ( 'NONE', #115, #214, #147, .T. ) ;
#71 = CARTESIAN_POINT ( 'NONE',  ( 0.000000000000000000, 0.000000000000000000, 5.000000000000000000 ) ) ;
#72 = ORIENTED_EDGE ( 'NONE', *, *, #43, .F. ) ;
#73 = CARTESIAN_POINT ( 'NONE',  ( 0.000000000000000000, 0.000000000000000000, 5.200000000000009948 ) ) ;
#74 = PRODUCT_DEFINITION_SHAPE ( 'NONE', 'NONE',  #256 ) ;
#75 = DIRECTION ( 'NONE',  ( -1.000000000000000000, 1.224646799147350742E-16, 0.000000000000000000 ) ) ;
#76 = AXIS2_PLACEMENT_3D ( 'NONE', #152, #271, #80 ) ;
#77 = FACE_OUTER_BOUND ( 'NONE', #252, .T. ) ;
#78 = CARTESIAN_POINT ( 'NONE',  ( 0.000000000000000000, 0.000000000000000000, 5.000000000000000000 ) ) ;
#79 = ADVANCED_FACE ( 'NONE', ( #191 ), #262, .F. ) ;
#80 = DIRECTION ( 'NONE',  ( 1.000000000000000000, 0.000000000000000000, 0.000000000000000000 ) ) ;
#81 = AXIS2_PLACEMENT_3D ( 'NONE', #24, #211, #99 ) ;
#82 = DATE_AND_TIME ( #165, #257 ) ;
#83 = CC_DESIGN_APPROVAL ( #148, ( #258 ) ) ;
#84 = ORIENTED_EDGE ( 'NONE', *, *, #293, .F. ) ;
#85 = ORIENTED_EDGE ( 'NONE', *, *, #270, .T. ) ;
#86 = EDGE_CURVE ( 'NONE', #236, #216, #53, .T. ) ;
#87 = APPROVAL_STATUS ( 'not_yet_approved' ) ;
#88 = ORIENTED_EDGE ( 'NONE', *, *, #243, .F. ) ;
#89 = AXIS2_PLACEMENT_3D ( 'NONE', #192, #263, #173 ) ;
#90 = DIRECTION ( 'NONE',  ( 1.000000000000000000, 0.000000000000000000, 0.000000000000000000 ) ) ;
#91 = ORIENTED_EDGE ( 'NONE', *, *, #48, .T. ) ;
#92 = PERSON_AND_ORGANIZATION_ROLE ( 'classification_officer' ) ;
#93 = ADVANCED_FACE ( 'NONE', ( #218 ), #102, .T. ) ;
#94 = EDGE_LOOP ( 'NONE', ( #261, #88 ) ) ;
#95 = CARTESIAN_POINT ( 'NONE',  ( 3.500000000000000000, 4.286263797015736595E-16, 5.200000000000009948 ) ) ;
#96 = TOROIDAL_SURFACE ( 'NONE', #212, 3.700000000000000178, 0.2000000000000000111 ) ;
#97 = DIRECTION ( 'NONE',  ( 1.000000000000000000, 0.000000000000000000, 0.000000000000000000 ) ) ;
#98 = ORIENTED_EDGE ( 'NONE', *, *, #3, .F. ) ;
#99 = DIRECTION ( 'NONE',  ( 1.000000000000000000, 0.000000000000000000, -0.000000000000000000 ) ) ;
#100 = AXIS2_PLACEMENT_3D ( 'NONE', #195, #4, #75 ) ;
#101 = DIRECTION ( 'NONE',  ( -0.000000000000000000, -0.000000000000000000, -1.000000000000000000 ) ) ;
#102 = CYLINDRICAL_SURFACE ( 'NONE', #137, 3.500000000000000000 ) ;
#103 = DIRECTION ( 'NONE',  ( 0.000000000000000000, 0.000000000000000000, 1.000000000000000000 ) ) ;
#104 =( GEOMETRIC_REPRESENTATION_CONTEXT ( 3 ) GLOBAL_UNCERTAINTY_ASSIGNED_CONTEXT ( ( #50 ) ) GLOBAL_UNIT_ASSIGNED_CONTEXT ( ( #62, #251, #180 ) ) REPRESENTATION_CONTEXT ( 'NONE', 'WORKASPACE' ) );
#105 = DIRECTION ( 'NONE',  ( 0.000000000000000000, -1.000000000000000000, 0.000000000000000000 ) ) ;
#106 = CC_DESIGN_PERSON_AND_ORGANIZATION_ASSIGNMENT ( #182, #254, ( #256 ) ) ;
#107 = CARTESIAN_POINT ( 'NONE',  ( -3.700000000000000178, 4.531193156845206201E-16, 5.000000000000005329 ) ) ;
#108 = PRODUCT_RELATED_PRODUCT_CATEGORY ( 'detail', '', ( #119 ) ) ;
#109 = MECHANICAL_CONTEXT ( 'NONE', #133, 'mechanical' ) ;
#110 = AXIS2_PLACEMENT_3D ( 'NONE', #179, #268, #130 ) ;
#111 = APPROVAL_ROLE ( '' ) ;
#112 = EDGE_CURVE ( 'NONE', #216, #170, #149, .T. ) ;
#113 = APPROVAL_STATUS ( 'not_yet_approved' ) ;
#114 = ORIENTED_EDGE ( 'NONE', *, *, #157, .F. ) ;
#115 = VERTEX_POINT ( 'NONE', #196 ) ;
#116 = CIRCLE ( 'NONE', #124, 6.000000000000000888 ) ;
#117 = EDGE_CURVE ( 'NONE', #16, #42, #225, .T. ) ;
#118 = ORIENTED_EDGE ( 'NONE', *, *, #267, .T. ) ;
#119 = PRODUCT ( '37cd', '37cd', '', ( #109 ) ) ;
#120 = FACE_OUTER_BOUND ( 'NONE', #2, .T. ) ;
#121 = DATE_AND_TIME ( #166, #224 ) ;
#122 = ADVANCED_FACE ( 'NONE', ( #294 ), #151, .T. ) ;
#123 = CARTESIAN_POINT ( 'NONE',  ( 0.000000000000000000, 0.000000000000000000, 255.0000000000000000 ) ) ;
#124 = AXIS2_PLACEMENT_3D ( 'NONE', #220, #132, #200 ) ;
#125 = DIRECTION ( 'NONE',  ( 1.000000000000000000, 0.000000000000000000, -0.000000000000000000 ) ) ;
#126 = ORIENTED_EDGE ( 'NONE', *, *, #70, .T. ) ;
#127 = CIRCLE ( 'NONE', #89, 6.000000000000000888 ) ;
#128 = DIRECTION ( 'NONE',  ( -0.000000000000000000, -0.000000000000000000, -1.000000000000000000 ) ) ;
#129 = DIRECTION ( 'NONE',  ( 1.000000000000000000, 0.000000000000000000, 0.000000000000000000 ) ) ;
#130 = DIRECTION ( 'NONE',  ( 1.000000000000000000, 0.000000000000000000, 0.000000000000000000 ) ) ;
#131 = CARTESIAN_POINT ( 'NONE',  ( 0.000000000000000000, 0.000000000000000000, 5.000000000000000000 ) ) ;
#132 = DIRECTION ( 'NONE',  ( 0.000000000000000000, 0.000000000000000000, 1.000000000000000000 ) ) ;
#133 = APPLICATION_CONTEXT ( 'configuration controlled 3d designs of mechanical parts and assemblies' ) ;
#134 = PERSON_AND_ORGANIZATION ( #146, #41 ) ;
#135 = VERTEX_POINT ( 'NONE', #33 ) ;
#136 = COORDINATED_UNIVERSAL_TIME_OFFSET ( 1, 0, .AHEAD. ) ;
#137 = AXIS2_PLACEMENT_3D ( 'NONE', #174, #101, #150 ) ;
#138 = APPROVAL_DATE_TIME ( #158, #163 ) ;
#139 = EDGE_LOOP ( 'NONE', ( #299, #187 ) ) ;
#140 = CIRCLE ( 'NONE', #234, 3.500000000000000000 ) ;
#141 = VERTEX_POINT ( 'NONE', #273 ) ;
#142 = ORIENTED_EDGE ( 'NONE', *, *, #3, .T. ) ;
#143 = DIRECTION ( 'NONE',  ( 1.000000000000000000, 0.000000000000000000, 0.000000000000000000 ) ) ;
#144 = CC_DESIGN_APPROVAL ( #163, ( #256 ) ) ;
#145 = DIRECTION ( 'NONE',  ( -1.000000000000000000, 0.000000000000000000, 0.000000000000000000 ) ) ;
#146 = PERSON ( 'NEURÈENÝ', 'NEURÈENÝ', 'NEURÈENÝ', ('NEURÈENÝ'), ('NEURÈENÝ'), ('NEURÈENÝ') ) ;
#147 = LINE ( 'NONE', #237, #296 ) ;
#148 = APPROVAL ( #113, 'NEURÈENÝ' ) ;
#149 = CIRCLE ( 'NONE', #100, 0.2000000000000000944 ) ;
#150 = DIRECTION ( 'NONE',  ( -1.000000000000000000, 0.000000000000000000, 0.000000000000000000 ) ) ;
#151 = CYLINDRICAL_SURFACE ( 'NONE', #194, 3.500000000000000000 ) ;
#152 = CARTESIAN_POINT ( 'NONE',  ( 0.000000000000000000, 0.000000000000000000, 0.000000000000000000 ) ) ;
#153 = DIRECTION ( 'NONE',  ( 0.000000000000000000, 0.000000000000000000, 1.000000000000000000 ) ) ;
#154 = LOCAL_TIME ( 14, 37, 24.00000000000000000, #66 ) ;
#155 = CARTESIAN_POINT ( 'NONE',  ( -3.500000000000000000, 0.000000000000000000, 255.0000000000000000 ) ) ;
#156 = VERTEX_POINT ( 'NONE', #289 ) ;
#157 = EDGE_CURVE ( 'NONE', #170, #135, #176, .T. ) ;
#158 = DATE_AND_TIME ( #40, #154 ) ;
#159 = CLOSED_SHELL ( 'NONE', ( #215, #122, #25, #57, #61, #34, #93, #175, #79 ) ) ;
#160 = APPLICATION_PROTOCOL_DEFINITION ( 'international standard', 'config_control_design', 1994, #133 ) ;
#161 = AXIS2_PLACEMENT_3D ( 'NONE', #78, #178, #55 ) ;
#162 = PERSON_AND_ORGANIZATION ( #146, #41 ) ;
#163 = APPROVAL ( #87, 'NEURÈENÝ' ) ;
#164 = ORIENTED_EDGE ( 'NONE', *, *, #267, .F. ) ;
#165 = CALENDAR_DATE ( 2022, 7, 7 ) ;
#166 = CALENDAR_DATE ( 2022, 7, 7 ) ;
#167 = ORIENTED_EDGE ( 'NONE', *, *, #243, .T. ) ;
#168 = AXIS2_PLACEMENT_3D ( 'NONE', #249, #231, #90 ) ;
#169 = CARTESIAN_POINT ( 'NONE',  ( 0.000000000000000000, 0.000000000000000000, 5.000000000000000000 ) ) ;
#170 = VERTEX_POINT ( 'NONE', #107 ) ;
#171 = APPLICATION_CONTEXT ( 'configuration controlled 3d designs of mechanical parts and assemblies' ) ;
#172 = DIRECTION ( 'NONE',  ( -0.000000000000000000, -0.000000000000000000, -1.000000000000000000 ) ) ;
#173 = DIRECTION ( 'NONE',  ( 1.000000000000000000, 0.000000000000000000, 0.000000000000000000 ) ) ;
#174 = CARTESIAN_POINT ( 'NONE',  ( 0.000000000000000000, 0.000000000000000000, 255.0000000000000000 ) ) ;
#175 = ADVANCED_FACE ( 'NONE', ( #241 ), #28, .T. ) ;
#176 = CIRCLE ( 'NONE', #219, 3.700000000000000178 ) ;
#177 = CC_DESIGN_DATE_AND_TIME_ASSIGNMENT ( #82, #58, ( #184 ) ) ;
#178 = DIRECTION ( 'NONE',  ( -0.000000000000000000, -0.000000000000000000, -1.000000000000000000 ) ) ;
#179 = CARTESIAN_POINT ( 'NONE',  ( 0.000000000000000000, 0.000000000000000000, 5.200000000000009948 ) ) ;
#180 =( NAMED_UNIT ( * ) SI_UNIT ( $, .STERADIAN. ) SOLID_ANGLE_UNIT ( ) );
#181 = CC_DESIGN_PERSON_AND_ORGANIZATION_ASSIGNMENT ( #162, #255, ( #258 ) ) ;
#182 = PERSON_AND_ORGANIZATION ( #146, #41 ) ;
#183 = AXIS2_PLACEMENT_3D ( 'NONE', #123, #265, #97 ) ;
#184 = SECURITY_CLASSIFICATION ( '', '', #232 ) ;
#185 = EDGE_LOOP ( 'NONE', ( #142, #118 ) ) ;
#186 = PERSON_AND_ORGANIZATION ( #146, #41 ) ;
#187 = ORIENTED_EDGE ( 'NONE', *, *, #157, .T. ) ;
#188 = FACE_BOUND ( 'NONE', #139, .T. ) ;
#189 = CIRCLE ( 'NONE', #161, 3.700000000000000178 ) ;
#190 = EDGE_CURVE ( 'NONE', #216, #42, #37, .T. ) ;
#191 = FACE_OUTER_BOUND ( 'NONE', #1, .T. ) ;
#192 = CARTESIAN_POINT ( 'NONE',  ( 0.000000000000000000, 0.000000000000000000, 5.000000000000000000 ) ) ;
#193 = ORIENTED_EDGE ( 'NONE', *, *, #293, .T. ) ;
#194 = AXIS2_PLACEMENT_3D ( 'NONE', #266, #244, #29 ) ;
#195 = CARTESIAN_POINT ( 'NONE',  ( -3.700000000000000178, 4.531193156845206201E-16, 5.200000000000009948 ) ) ;
#196 = CARTESIAN_POINT ( 'NONE',  ( 6.000000000000000888, 7.347880794884120722E-16, 5.000000000000000000 ) ) ;
#197 = CARTESIAN_POINT ( 'NONE',  ( 6.000000000000000888, 7.347880794884120722E-16, 0.000000000000000000 ) ) ;
#198 = APPROVAL ( #13, 'NEURÈENÝ' ) ;
#199 = DIRECTION ( 'NONE',  ( 0.000000000000000000, 0.000000000000000000, -1.000000000000000000 ) ) ;
#200 = DIRECTION ( 'NONE',  ( 1.000000000000000000, 0.000000000000000000, 0.000000000000000000 ) ) ;
#201 = CC_DESIGN_DATE_AND_TIME_ASSIGNMENT ( #38, #230, ( #256 ) ) ;
#202 = PERSON_AND_ORGANIZATION_ROLE ( 'creator' ) ;
#203 = PERSON_AND_ORGANIZATION ( #146, #41 ) ;
#204 = ORIENTED_EDGE ( 'NONE', *, *, #112, .T. ) ;
#205 = CALENDAR_DATE ( 2022, 7, 7 ) ;
#206 = EDGE_CURVE ( 'NONE', #42, #216, #140, .T. ) ;
#207 = DATE_AND_TIME ( #205, #19 ) ;
#208 = ORIENTED_EDGE ( 'NONE', *, *, #279, .F. ) ;
#209 = ORIENTED_EDGE ( 'NONE', *, *, #70, .F. ) ;
#210 = CARTESIAN_POINT ( 'NONE',  ( -6.000000000000000888, 0.000000000000000000, 5.000000000000000000 ) ) ;
#211 = DIRECTION ( 'NONE',  ( 0.000000000000000000, 0.000000000000000000, 1.000000000000000000 ) ) ;
#212 = AXIS2_PLACEMENT_3D ( 'NONE', #30, #52, #54 ) ;
#213 = SHAPE_DEFINITION_REPRESENTATION ( #74, #272 ) ;
#214 = VERTEX_POINT ( 'NONE', #197 ) ;
#215 = ADVANCED_FACE ( 'NONE', ( #77 ), #96, .F. ) ;
#216 = VERTEX_POINT ( 'NONE', #248 ) ;
#217 = AXIS2_PLACEMENT_3D ( 'NONE', #26, #304, #125 ) ;
#218 = FACE_OUTER_BOUND ( 'NONE', #51, .T. ) ;
#219 = AXIS2_PLACEMENT_3D ( 'NONE', #131, #221, #223 ) ;
#220 = CARTESIAN_POINT ( 'NONE',  ( 0.000000000000000000, 0.000000000000000000, 5.000000000000000000 ) ) ;
#221 = DIRECTION ( 'NONE',  ( -0.000000000000000000, -0.000000000000000000, -1.000000000000000000 ) ) ;
#222 = AXIS2_PLACEMENT_3D ( 'NONE', #71, #172, #145 ) ;
#223 = DIRECTION ( 'NONE',  ( 1.000000000000000000, 0.000000000000000000, 0.000000000000000000 ) ) ;
#224 = LOCAL_TIME ( 14, 37, 24.00000000000000000, #306 ) ;
#225 = LINE ( 'NONE', #11, #242 ) ;
#226 = CC_DESIGN_PERSON_AND_ORGANIZATION_ASSIGNMENT ( #203, #36, ( #119 ) ) ;
#227 = CALENDAR_DATE ( 2022, 7, 7 ) ;
#228 = PERSON_AND_ORGANIZATION ( #146, #41 ) ;
#229 = AXIS2_PLACEMENT_3D ( 'NONE', #56, #295, #129 ) ;
#230 = DATE_TIME_ROLE ( 'creation_date' ) ;
#231 = DIRECTION ( 'NONE',  ( 0.000000000000000000, 0.000000000000000000, 1.000000000000000000 ) ) ;
#232 = SECURITY_CLASSIFICATION_LEVEL ( 'unclassified' ) ;
#233 = ORIENTED_EDGE ( 'NONE', *, *, #190, .T. ) ;
#234 = AXIS2_PLACEMENT_3D ( 'NONE', #73, #153, #245 ) ;
#235 = DIRECTION ( 'NONE',  ( -1.000000000000000000, 0.000000000000000000, 0.000000000000000000 ) ) ;
#236 = VERTEX_POINT ( 'NONE', #269 ) ;
#237 = CARTESIAN_POINT ( 'NONE',  ( 6.000000000000000888, 7.347880794884120722E-16, 5.000000000000000000 ) ) ;
#238 = MANIFOLD_SOLID_BREP ( 'Zaoblit1', #159 ) ;
#239 = DIRECTION ( 'NONE',  ( -0.000000000000000000, -0.000000000000000000, -1.000000000000000000 ) ) ;
#240 = CIRCLE ( 'NONE', #183, 3.500000000000000000 ) ;
#241 = FACE_OUTER_BOUND ( 'NONE', #39, .T. ) ;
#242 = VECTOR ( 'NONE', #5, 1000.000000000000000 ) ;
#243 = EDGE_CURVE ( 'NONE', #214, #141, #247, .T. ) ;
#244 = DIRECTION ( 'NONE',  ( -0.000000000000000000, -0.000000000000000000, -1.000000000000000000 ) ) ;
#245 = DIRECTION ( 'NONE',  ( 1.000000000000000000, 0.000000000000000000, 0.000000000000000000 ) ) ;
#246 = CARTESIAN_POINT ( 'NONE',  ( 0.000000000000000000, 0.000000000000000000, 255.0000000000000000 ) ) ;
#247 = CIRCLE ( 'NONE', #76, 6.000000000000000888 ) ;
#248 = CARTESIAN_POINT ( 'NONE',  ( -3.500000000000000000, 0.000000000000000000, 5.200000000000009948 ) ) ;
#249 = CARTESIAN_POINT ( 'NONE',  ( 0.000000000000000000, 0.000000000000000000, 0.000000000000000000 ) ) ;
#250 = ORIENTED_EDGE ( 'NONE', *, *, #270, .F. ) ;
#251 =( NAMED_UNIT ( * ) PLANE_ANGLE_UNIT ( ) SI_UNIT ( $, .RADIAN. ) );
#252 = EDGE_LOOP ( 'NONE', ( #307, #204, #208, #250 ) ) ;
#253 = AXIS2_PLACEMENT_3D ( 'NONE', #6, #103, #291 ) ;
#254 = PERSON_AND_ORGANIZATION_ROLE ( 'creator' ) ;
#255 = PERSON_AND_ORGANIZATION_ROLE ( 'design_supplier' ) ;
#256 = PRODUCT_DEFINITION ( 'NEZNÁMÝ', '', #258, #10 ) ;
#257 = LOCAL_TIME ( 14, 37, 24.00000000000000000, #275 ) ;
#258 = PRODUCT_DEFINITION_FORMATION_WITH_SPECIFIED_SOURCE ( 'LIBOVOLNÝ', '', #119, .NOT_KNOWN. ) ;
#259 = PLANE ( 'NONE',  #81 ) ;
#260 = ORIENTED_EDGE ( 'NONE', *, *, #86, .F. ) ;
#261 = ORIENTED_EDGE ( 'NONE', *, *, #17, .F. ) ;
#262 = TOROIDAL_SURFACE ( 'NONE', #110, 3.700000000000000178, 0.2000000000000000111 ) ;
#263 = DIRECTION ( 'NONE',  ( 0.000000000000000000, 0.000000000000000000, 1.000000000000000000 ) ) ;
#264 = AXIS2_PLACEMENT_3D ( 'NONE', #246, #32, #301 ) ;
#265 = DIRECTION ( 'NONE',  ( 0.000000000000000000, 0.000000000000000000, 1.000000000000000000 ) ) ;
#266 = CARTESIAN_POINT ( 'NONE',  ( 0.000000000000000000, 0.000000000000000000, 255.0000000000000000 ) ) ;
#267 = EDGE_CURVE ( 'NONE', #115, #156, #116, .T. ) ;
#268 = DIRECTION ( 'NONE',  ( 0.000000000000000000, 0.000000000000000000, 1.000000000000000000 ) ) ;
#269 = CARTESIAN_POINT ( 'NONE',  ( -3.500000000000000000, 0.000000000000000000, 255.0000000000000000 ) ) ;
#270 = EDGE_CURVE ( 'NONE', #42, #135, #274, .T. ) ;
#271 = DIRECTION ( 'NONE',  ( 0.000000000000000000, 0.000000000000000000, 1.000000000000000000 ) ) ;
#272 = ADVANCED_BREP_SHAPE_REPRESENTATION ( '37cd', ( #238, #168 ), #104 ) ;
#273 = CARTESIAN_POINT ( 'NONE',  ( -6.000000000000000888, 0.000000000000000000, 0.000000000000000000 ) ) ;
#274 = CIRCLE ( 'NONE', #292, 0.1999999999999996503 ) ;
#275 = COORDINATED_UNIVERSAL_TIME_OFFSET ( 1, 0, .AHEAD. ) ;
#276 = APPROVAL_PERSON_ORGANIZATION ( #134, #163, #64 ) ;
#277 = APPLICATION_PROTOCOL_DEFINITION ( 'international standard', 'config_control_design', 1994, #171 ) ;
#278 = EDGE_LOOP ( 'NONE', ( #209, #98, #18, #65 ) ) ;
#279 = EDGE_CURVE ( 'NONE', #135, #170, #189, .T. ) ;
#280 = LINE ( 'NONE', #210, #60 ) ;
#281 = APPROVAL_PERSON_ORGANIZATION ( #14, #148, #15 ) ;
#282 = APPROVAL_DATE_TIME ( #121, #198 ) ;
#283 = CYLINDRICAL_SURFACE ( 'NONE', #45, 6.000000000000000888 ) ;
#284 = FACE_OUTER_BOUND ( 'NONE', #94, .T. ) ;
#285 = FACE_OUTER_BOUND ( 'NONE', #278, .T. ) ;
#286 = ORIENTED_EDGE ( 'NONE', *, *, #117, .T. ) ;
#287 = CIRCLE ( 'NONE', #264, 3.500000000000000000 ) ;
#288 = CC_DESIGN_PERSON_AND_ORGANIZATION_ASSIGNMENT ( #186, #202, ( #258 ) ) ;
#289 = CARTESIAN_POINT ( 'NONE',  ( -6.000000000000000888, 0.000000000000000000, 5.000000000000000000 ) ) ;
#290 = DIRECTION ( 'NONE',  ( -0.000000000000000000, -0.000000000000000000, -1.000000000000000000 ) ) ;
#291 = DIRECTION ( 'NONE',  ( 1.000000000000000000, 0.000000000000000000, -0.000000000000000000 ) ) ;
#292 = AXIS2_PLACEMENT_3D ( 'NONE', #8, #105, #199 ) ;
#293 = EDGE_CURVE ( 'NONE', #236, #16, #287, .T. ) ;
#294 = FACE_OUTER_BOUND ( 'NONE', #300, .T. ) ;
#295 = DIRECTION ( 'NONE',  ( 0.000000000000000000, 0.000000000000000000, 1.000000000000000000 ) ) ;
#296 = VECTOR ( 'NONE', #239, 1000.000000000000000 ) ;
#297 = COORDINATED_UNIVERSAL_TIME_OFFSET ( 1, 0, .AHEAD. ) ;
#298 = CC_DESIGN_APPROVAL ( #198, ( #184 ) ) ;
#299 = ORIENTED_EDGE ( 'NONE', *, *, #279, .T. ) ;
#300 = EDGE_LOOP ( 'NONE', ( #69, #286, #20, #260 ) ) ;
#301 = DIRECTION ( 'NONE',  ( 1.000000000000000000, 0.000000000000000000, 0.000000000000000000 ) ) ;
#302 = ORIENTED_EDGE ( 'NONE', *, *, #206, .F. ) ;
#303 = PERSON_AND_ORGANIZATION ( #146, #41 ) ;
#304 = DIRECTION ( 'NONE',  ( 0.000000000000000000, 0.000000000000000000, 1.000000000000000000 ) ) ;
#305 = CYLINDRICAL_SURFACE ( 'NONE', #222, 6.000000000000000888 ) ;
#306 = COORDINATED_UNIVERSAL_TIME_OFFSET ( 1, 0, .AHEAD. ) ;
#307 = ORIENTED_EDGE ( 'NONE', *, *, #190, .F. ) ;
ENDSEC;
END-ISO-10303-21;
