ISO-10303-21;
HEADER;
FILE_DESCRIPTION (( 'STEP AP203' ),
    '1' );
FILE_NAME ('890f.STEP',
    '2022-07-07T12:38:57',
    ( '' ),
    ( '' ),
    'SwSTEP 2.0',
    'SolidWorks 2019',
    '' );
FILE_SCHEMA (( 'CONFIG_CONTROL_DESIGN' ));
ENDSEC;

DATA;
#1 = CIRCLE ( 'NONE', #51, 3.250000000000000444 ) ;
#2 = APPROVAL_STATUS ( 'not_yet_approved' ) ;
#3 = VERTEX_POINT ( 'NONE', #158 ) ;
#4 = CIRCLE ( 'NONE', #189, 3.450000000000000178 ) ;
#5 = DIRECTION ( 'NONE',  ( 1.224646799147353207E-16, 1.000000000000000000, -0.000000000000000000 ) ) ;
#6 = VERTEX_POINT ( 'NONE', #252 ) ;
#7 = DIRECTION ( 'NONE',  ( -0.000000000000000000, -0.000000000000000000, -1.000000000000000000 ) ) ;
#8 = CARTESIAN_POINT ( 'NONE',  ( -6.000000000000000888, 0.000000000000000000, 0.000000000000000000 ) ) ;
#9 = ORIENTED_EDGE ( 'NONE', *, *, #242, .F. ) ;
#10 = EDGE_CURVE ( 'NONE', #257, #174, #4, .T. ) ;
#11 = FACE_OUTER_BOUND ( 'NONE', #177, .T. ) ;
#12 = DIRECTION ( 'NONE',  ( 1.000000000000000000, 0.000000000000000000, 0.000000000000000000 ) ) ;
#13 = DATE_AND_TIME ( #294, #230 ) ;
#14 = ORIENTED_EDGE ( 'NONE', *, *, #10, .T. ) ;
#15 = CARTESIAN_POINT ( 'NONE',  ( 0.000000000000000000, 0.000000000000000000, 205.0000000000000284 ) ) ;
#16 = DIRECTION ( 'NONE',  ( 1.000000000000000000, 0.000000000000000000, 0.000000000000000000 ) ) ;
#17 = EDGE_CURVE ( 'NONE', #54, #3, #279, .T. ) ;
#18 = APPLICATION_CONTEXT ( 'configuration controlled 3d designs of mechanical parts and assemblies' ) ;
#19 = AXIS2_PLACEMENT_3D ( 'NONE', #248, #31, #164 ) ;
#20 = APPROVAL ( #171, 'NEURÈENÝ' ) ;
#21 = EDGE_CURVE ( 'NONE', #174, #257, #284, .T. ) ;
#22 = TOROIDAL_SURFACE ( 'NONE', #73, 3.450000000000000178, 0.2000000000000000111 ) ;
#23 = EDGE_CURVE ( 'NONE', #6, #200, #103, .T. ) ;
#24 = EDGE_CURVE ( 'NONE', #133, #6, #71, .T. ) ;
#25 = COORDINATED_UNIVERSAL_TIME_OFFSET ( 1, 0, .AHEAD. ) ;
#26 = ORIENTED_EDGE ( 'NONE', *, *, #222, .T. ) ;
#27 = LOCAL_TIME ( 14, 38, 57.00000000000000000, #290 ) ;
#28 = ORIENTED_EDGE ( 'NONE', *, *, #242, .T. ) ;
#29 = AXIS2_PLACEMENT_3D ( 'NONE', #271, #297, #136 ) ;
#30 = DIRECTION ( 'NONE',  ( 0.000000000000000000, 0.000000000000000000, 1.000000000000000000 ) ) ;
#31 = DIRECTION ( 'NONE',  ( -0.000000000000000000, -0.000000000000000000, -1.000000000000000000 ) ) ;
#32 = PERSON_AND_ORGANIZATION ( #135, #192 ) ;
#33 = ORIENTED_EDGE ( 'NONE', *, *, #236, .T. ) ;
#34 = CARTESIAN_POINT ( 'NONE',  ( 6.000000000000000888, 7.347880794884120722E-16, 0.000000000000000000 ) ) ;
#35 = DIRECTION ( 'NONE',  ( 1.000000000000000000, 0.000000000000000000, -0.000000000000000000 ) ) ;
#36 = PERSON_AND_ORGANIZATION_ROLE ( 'classification_officer' ) ;
#37 = ORIENTED_EDGE ( 'NONE', *, *, #23, .F. ) ;
#38 = CARTESIAN_POINT ( 'NONE',  ( -3.450000000000000178, 4.225031457058368824E-16, 5.200000000000009948 ) ) ;
#39 = LOCAL_TIME ( 14, 38, 57.00000000000000000, #93 ) ;
#40 = CIRCLE ( 'NONE', #67, 3.250000000000000444 ) ;
#41 = UNCERTAINTY_MEASURE_WITH_UNIT (LENGTH_MEASURE( 1.000000000000000082E-05 ), #134, 'distance_accuracy_value', 'NONE');
#42 = VERTEX_POINT ( 'NONE', #251 ) ;
#43 = CARTESIAN_POINT ( 'NONE',  ( 0.000000000000000000, 0.000000000000000000, 205.0000000000000284 ) ) ;
#44 = DIRECTION ( 'NONE',  ( -0.000000000000000000, -0.000000000000000000, -1.000000000000000000 ) ) ;
#45 = DIRECTION ( 'NONE',  ( -1.000000000000000000, 0.000000000000000000, 0.000000000000000000 ) ) ;
#46 = CC_DESIGN_PERSON_AND_ORGANIZATION_ASSIGNMENT ( #265, #36, ( #217 ) ) ;
#47 = AXIS2_PLACEMENT_3D ( 'NONE', #254, #175, #59 ) ;
#48 = PRODUCT ( '890f', '890f', '', ( #92 ) ) ;
#49 = APPLICATION_PROTOCOL_DEFINITION ( 'international standard', 'config_control_design', 1994, #266 ) ;
#50 = ADVANCED_FACE ( 'NONE', ( #79 ), #216, .F. ) ;
#51 = AXIS2_PLACEMENT_3D ( 'NONE', #43, #155, #150 ) ;
#52 = PRODUCT_DEFINITION ( 'NEZNÁMÝ', '', #130, #166 ) ;
#53 = COORDINATED_UNIVERSAL_TIME_OFFSET ( 1, 0, .AHEAD. ) ;
#54 = VERTEX_POINT ( 'NONE', #85 ) ;
#55 = DIRECTION ( 'NONE',  ( 0.000000000000000000, 0.000000000000000000, 1.000000000000000000 ) ) ;
#56 = PERSON_AND_ORGANIZATION ( #135, #192 ) ;
#57 = ORIENTED_EDGE ( 'NONE', *, *, #305, .F. ) ;
#58 = CARTESIAN_POINT ( 'NONE',  ( 0.000000000000000000, 0.000000000000000000, 0.000000000000000000 ) ) ;
#59 = DIRECTION ( 'NONE',  ( 1.000000000000000000, 0.000000000000000000, 0.000000000000000000 ) ) ;
#60 = EDGE_LOOP ( 'NONE', ( #220, #9, #205, #272 ) ) ;
#61 = DIRECTION ( 'NONE',  ( -0.000000000000000000, -0.000000000000000000, -1.000000000000000000 ) ) ;
#62 = CARTESIAN_POINT ( 'NONE',  ( -6.000000000000000888, 0.000000000000000000, 5.000000000000000000 ) ) ;
#63 = APPROVAL_DATE_TIME ( #152, #190 ) ;
#64 = EDGE_LOOP ( 'NONE', ( #28, #101 ) ) ;
#65 = CARTESIAN_POINT ( 'NONE',  ( 0.000000000000000000, 0.000000000000000000, 5.000000000000000000 ) ) ;
#66 = CARTESIAN_POINT ( 'NONE',  ( 0.000000000000000000, 0.000000000000000000, 5.200000000000009948 ) ) ;
#67 = AXIS2_PLACEMENT_3D ( 'NONE', #212, #292, #202 ) ;
#68 = ADVANCED_FACE ( 'NONE', ( #183 ), #22, .F. ) ;
#69 = CARTESIAN_POINT ( 'NONE',  ( 0.000000000000000000, 0.000000000000000000, 5.200000000000009948 ) ) ;
#70 =( GEOMETRIC_REPRESENTATION_CONTEXT ( 3 ) GLOBAL_UNCERTAINTY_ASSIGNED_CONTEXT ( ( #41 ) ) GLOBAL_UNIT_ASSIGNED_CONTEXT ( ( #134, #253, #299 ) ) REPRESENTATION_CONTEXT ( 'NONE', 'WORKASPACE' ) );
#71 = CIRCLE ( 'NONE', #29, 6.000000000000000888 ) ;
#72 = CIRCLE ( 'NONE', #167, 3.250000000000000444 ) ;
#73 = AXIS2_PLACEMENT_3D ( 'NONE', #268, #55, #12 ) ;
#74 = AXIS2_PLACEMENT_3D ( 'NONE', #66, #259, #16 ) ;
#75 = PERSON_AND_ORGANIZATION_ROLE ( 'creator' ) ;
#76 = CC_DESIGN_SECURITY_CLASSIFICATION ( #217, ( #130 ) ) ;
#77 = DIRECTION ( 'NONE',  ( 0.000000000000000000, 0.000000000000000000, 1.000000000000000000 ) ) ;
#78 = ORIENTED_EDGE ( 'NONE', *, *, #191, .T. ) ;
#79 = FACE_OUTER_BOUND ( 'NONE', #121, .T. ) ;
#80 = CALENDAR_DATE ( 2022, 7, 7 ) ;
#81 = ORIENTED_EDGE ( 'NONE', *, *, #195, .T. ) ;
#82 = CARTESIAN_POINT ( 'NONE',  ( 0.000000000000000000, 0.000000000000000000, 5.000000000000000000 ) ) ;
#83 = ORIENTED_EDGE ( 'NONE', *, *, #10, .F. ) ;
#84 = DIRECTION ( 'NONE',  ( 1.000000000000000000, 0.000000000000000000, -0.000000000000000000 ) ) ;
#85 = CARTESIAN_POINT ( 'NONE',  ( -3.250000000000000444, 0.000000000000000000, 205.0000000000000284 ) ) ;
#86 = PERSON_AND_ORGANIZATION_ROLE ( 'creator' ) ;
#87 = ORIENTED_EDGE ( 'NONE', *, *, #24, .F. ) ;
#88 = CARTESIAN_POINT ( 'NONE',  ( 3.450000000000000178, 0.000000000000000000, 5.000000000000005329 ) ) ;
#89 = CYLINDRICAL_SURFACE ( 'NONE', #19, 3.250000000000000444 ) ;
#90 = EDGE_CURVE ( 'NONE', #154, #257, #117, .T. ) ;
#91 = DIRECTION ( 'NONE',  ( 1.000000000000000000, 0.000000000000000000, -0.000000000000000000 ) ) ;
#92 = MECHANICAL_CONTEXT ( 'NONE', #266, 'mechanical' ) ;
#93 = COORDINATED_UNIVERSAL_TIME_OFFSET ( 1, 0, .AHEAD. ) ;
#94 = ORIENTED_EDGE ( 'NONE', *, *, #90, .F. ) ;
#95 = DIRECTION ( 'NONE',  ( -1.000000000000000000, 1.224646799147350742E-16, 0.000000000000000000 ) ) ;
#96 = APPROVAL_STATUS ( 'not_yet_approved' ) ;
#97 = ORIENTED_EDGE ( 'NONE', *, *, #218, .F. ) ;
#98 = DIRECTION ( 'NONE',  ( -0.000000000000000000, -0.000000000000000000, -1.000000000000000000 ) ) ;
#99 = FACE_BOUND ( 'NONE', #234, .T. ) ;
#100 = SHAPE_DEFINITION_REPRESENTATION ( #139, #237 ) ;
#101 = ORIENTED_EDGE ( 'NONE', *, *, #305, .T. ) ;
#102 = CC_DESIGN_APPROVAL ( #20, ( #52 ) ) ;
#103 = LINE ( 'NONE', #235, #112 ) ;
#104 = PERSON_AND_ORGANIZATION ( #135, #192 ) ;
#105 = ORIENTED_EDGE ( 'NONE', *, *, #140, .F. ) ;
#106 = VECTOR ( 'NONE', #213, 1000.000000000000000 ) ;
#107 = DIRECTION ( 'NONE',  ( 1.000000000000000000, 0.000000000000000000, 0.000000000000000000 ) ) ;
#108 = CARTESIAN_POINT ( 'NONE',  ( 0.000000000000000000, 0.000000000000000000, 0.000000000000000000 ) ) ;
#109 = CC_DESIGN_PERSON_AND_ORGANIZATION_ASSIGNMENT ( #132, #275, ( #48 ) ) ;
#110 = CARTESIAN_POINT ( 'NONE',  ( 0.000000000000000000, 0.000000000000000000, 5.000000000000000000 ) ) ;
#111 = LINE ( 'NONE', #62, #106 ) ;
#112 = VECTOR ( 'NONE', #208, 1000.000000000000000 ) ;
#113 = EDGE_CURVE ( 'NONE', #133, #161, #111, .T. ) ;
#114 = AXIS2_PLACEMENT_3D ( 'NONE', #108, #127, #35 ) ;
#115 = CIRCLE ( 'NONE', #74, 3.250000000000000444 ) ;
#116 = PRODUCT_RELATED_PRODUCT_CATEGORY ( 'detail', '', ( #48 ) ) ;
#117 = CIRCLE ( 'NONE', #247, 0.1999999999999996503 ) ;
#118 = DATE_AND_TIME ( #249, #303 ) ;
#119 = ORIENTED_EDGE ( 'NONE', *, *, #138, .T. ) ;
#120 = CC_DESIGN_APPROVAL ( #239, ( #217 ) ) ;
#121 = EDGE_LOOP ( 'NONE', ( #210, #97, #295, #185 ) ) ;
#122 = FACE_OUTER_BOUND ( 'NONE', #243, .T. ) ;
#123 = CARTESIAN_POINT ( 'NONE',  ( 3.250000000000000444, 3.980102097228898231E-16, 5.200000000000009948 ) ) ;
#124 = DATE_AND_TIME ( #173, #39 ) ;
#125 = EDGE_LOOP ( 'NONE', ( #105, #119, #83, #94 ) ) ;
#126 = DIRECTION ( 'NONE',  ( -1.000000000000000000, 0.000000000000000000, 0.000000000000000000 ) ) ;
#127 = DIRECTION ( 'NONE',  ( 0.000000000000000000, 0.000000000000000000, 1.000000000000000000 ) ) ;
#128 = CARTESIAN_POINT ( 'NONE',  ( 0.000000000000000000, 0.000000000000000000, 5.000000000000000000 ) ) ;
#129 = DIRECTION ( 'NONE',  ( 1.000000000000000000, 0.000000000000000000, 0.000000000000000000 ) ) ;
#130 = PRODUCT_DEFINITION_FORMATION_WITH_SPECIFIED_SOURCE ( 'LIBOVOLNÝ', '', #48, .NOT_KNOWN. ) ;
#131 = PLANE ( 'NONE',  #114 ) ;
#132 = PERSON_AND_ORGANIZATION ( #135, #192 ) ;
#133 = VERTEX_POINT ( 'NONE', #302 ) ;
#134 =( LENGTH_UNIT ( ) NAMED_UNIT ( * ) SI_UNIT ( .MILLI., .METRE. ) );
#135 = PERSON ( 'NEURÈENÝ', 'NEURÈENÝ', 'NEURÈENÝ', ('NEURÈENÝ'), ('NEURÈENÝ'), ('NEURÈENÝ') ) ;
#136 = DIRECTION ( 'NONE',  ( 1.000000000000000000, 0.000000000000000000, 0.000000000000000000 ) ) ;
#137 = DIRECTION ( 'NONE',  ( -1.000000000000000000, 0.000000000000000000, 0.000000000000000000 ) ) ;
#138 = EDGE_CURVE ( 'NONE', #3, #174, #153, .T. ) ;
#139 = PRODUCT_DEFINITION_SHAPE ( 'NONE', 'NONE',  #52 ) ;
#140 = EDGE_CURVE ( 'NONE', #3, #154, #115, .T. ) ;
#141 = AXIS2_PLACEMENT_3D ( 'NONE', #110, #228, #129 ) ;
#142 = CLOSED_SHELL ( 'NONE', ( #68, #288, #276, #214, #168, #145, #146, #263, #50 ) ) ;
#143 = APPROVAL_ROLE ( '' ) ;
#144 = AXIS2_PLACEMENT_3D ( 'NONE', #224, #98, #126 ) ;
#145 = ADVANCED_FACE ( 'NONE', ( #199 ), #131, .F. ) ;
#146 = ADVANCED_FACE ( 'NONE', ( #229 ), #89, .T. ) ;
#147 = APPROVAL_ROLE ( '' ) ;
#148 = ORIENTED_EDGE ( 'NONE', *, *, #218, .T. ) ;
#149 = VECTOR ( 'NONE', #7, 1000.000000000000000 ) ;
#150 = DIRECTION ( 'NONE',  ( 1.000000000000000000, 0.000000000000000000, 0.000000000000000000 ) ) ;
#151 = CARTESIAN_POINT ( 'NONE',  ( 3.450000000000000178, 0.000000000000000000, 5.200000000000009948 ) ) ;
#152 = DATE_AND_TIME ( #80, #27 ) ;
#153 = CIRCLE ( 'NONE', #194, 0.2000000000000000944 ) ;
#154 = VERTEX_POINT ( 'NONE', #123 ) ;
#155 = DIRECTION ( 'NONE',  ( 0.000000000000000000, 0.000000000000000000, 1.000000000000000000 ) ) ;
#156 = DIRECTION ( 'NONE',  ( 1.000000000000000000, 0.000000000000000000, 0.000000000000000000 ) ) ;
#157 = COORDINATED_UNIVERSAL_TIME_OFFSET ( 1, 0, .AHEAD. ) ;
#158 = CARTESIAN_POINT ( 'NONE',  ( -3.250000000000000444, 0.000000000000000000, 5.200000000000009948 ) ) ;
#159 = DIRECTION ( 'NONE',  ( 0.000000000000000000, 0.000000000000000000, 1.000000000000000000 ) ) ;
#160 = PERSON_AND_ORGANIZATION ( #135, #192 ) ;
#161 = VERTEX_POINT ( 'NONE', #8 ) ;
#162 = CARTESIAN_POINT ( 'NONE',  ( 0.000000000000000000, 0.000000000000000000, 0.000000000000000000 ) ) ;
#163 = CIRCLE ( 'NONE', #306, 6.000000000000000888 ) ;
#164 = DIRECTION ( 'NONE',  ( -1.000000000000000000, 0.000000000000000000, 0.000000000000000000 ) ) ;
#165 = DIRECTION ( 'NONE',  ( 0.000000000000000000, 0.000000000000000000, 1.000000000000000000 ) ) ;
#166 = DESIGN_CONTEXT ( 'detailed design', #18, 'design' ) ;
#167 = AXIS2_PLACEMENT_3D ( 'NONE', #69, #182, #107 ) ;
#168 = ADVANCED_FACE ( 'NONE', ( #99, #203 ), #293, .T. ) ;
#169 = AXIS2_PLACEMENT_3D ( 'NONE', #162, #30, #280 ) ;
#170 = AXIS2_PLACEMENT_3D ( 'NONE', #232, #300, #156 ) ;
#171 = APPROVAL_STATUS ( 'not_yet_approved' ) ;
#172 = CC_DESIGN_APPROVAL ( #190, ( #130 ) ) ;
#173 = CALENDAR_DATE ( 2022, 7, 7 ) ;
#174 = VERTEX_POINT ( 'NONE', #296 ) ;
#175 = DIRECTION ( 'NONE',  ( 0.000000000000000000, 0.000000000000000000, 1.000000000000000000 ) ) ;
#176 = PERSON_AND_ORGANIZATION_ROLE ( 'design_supplier' ) ;
#177 = EDGE_LOOP ( 'NONE', ( #57, #26, #148, #287 ) ) ;
#178 = AXIS2_PLACEMENT_3D ( 'NONE', #65, #188, #45 ) ;
#179 = CYLINDRICAL_SURFACE ( 'NONE', #206, 3.250000000000000444 ) ;
#180 = DIRECTION ( 'NONE',  ( 0.000000000000000000, 0.000000000000000000, 1.000000000000000000 ) ) ;
#181 = EDGE_LOOP ( 'NONE', ( #269, #227 ) ) ;
#182 = DIRECTION ( 'NONE',  ( 0.000000000000000000, 0.000000000000000000, 1.000000000000000000 ) ) ;
#183 = FACE_OUTER_BOUND ( 'NONE', #125, .T. ) ;
#184 = CALENDAR_DATE ( 2022, 7, 7 ) ;
#185 = ORIENTED_EDGE ( 'NONE', *, *, #21, .F. ) ;
#186 = FACE_OUTER_BOUND ( 'NONE', #64, .T. ) ;
#187 = DIRECTION ( 'NONE',  ( -0.000000000000000000, -0.000000000000000000, -1.000000000000000000 ) ) ;
#188 = DIRECTION ( 'NONE',  ( -0.000000000000000000, -0.000000000000000000, -1.000000000000000000 ) ) ;
#189 = AXIS2_PLACEMENT_3D ( 'NONE', #128, #187, #211 ) ;
#190 = APPROVAL ( #96, 'NEURÈENÝ' ) ;
#191 = EDGE_CURVE ( 'NONE', #161, #200, #285, .T. ) ;
#192 = ORGANIZATION ( 'NEURÈENÝ', 'NEURÈENÝ', '' ) ;
#193 = APPROVAL_DATE_TIME ( #13, #20 ) ;
#194 = AXIS2_PLACEMENT_3D ( 'NONE', #38, #5, #95 ) ;
#195 = EDGE_CURVE ( 'NONE', #200, #161, #163, .T. ) ;
#196 = CIRCLE ( 'NONE', #141, 6.000000000000000888 ) ;
#197 = DATE_TIME_ROLE ( 'creation_date' ) ;
#198 = EDGE_LOOP ( 'NONE', ( #223, #277, #81, #298 ) ) ;
#199 = FACE_OUTER_BOUND ( 'NONE', #181, .T. ) ;
#200 = VERTEX_POINT ( 'NONE', #34 ) ;
#201 = CC_DESIGN_PERSON_AND_ORGANIZATION_ASSIGNMENT ( #160, #176, ( #130 ) ) ;
#202 = DIRECTION ( 'NONE',  ( 1.000000000000000000, 0.000000000000000000, 0.000000000000000000 ) ) ;
#203 = FACE_OUTER_BOUND ( 'NONE', #250, .T. ) ;
#204 = DIRECTION ( 'NONE',  ( 1.000000000000000000, 0.000000000000000000, 0.000000000000000000 ) ) ;
#205 = ORIENTED_EDGE ( 'NONE', *, *, #17, .T. ) ;
#206 = AXIS2_PLACEMENT_3D ( 'NONE', #15, #61, #137 ) ;
#207 = CYLINDRICAL_SURFACE ( 'NONE', #144, 6.000000000000000888 ) ;
#208 = DIRECTION ( 'NONE',  ( -0.000000000000000000, -0.000000000000000000, -1.000000000000000000 ) ) ;
#209 = PERSON_AND_ORGANIZATION ( #135, #192 ) ;
#210 = ORIENTED_EDGE ( 'NONE', *, *, #138, .F. ) ;
#211 = DIRECTION ( 'NONE',  ( 1.000000000000000000, 0.000000000000000000, 0.000000000000000000 ) ) ;
#212 = CARTESIAN_POINT ( 'NONE',  ( 0.000000000000000000, 0.000000000000000000, 205.0000000000000284 ) ) ;
#213 = DIRECTION ( 'NONE',  ( -0.000000000000000000, -0.000000000000000000, -1.000000000000000000 ) ) ;
#214 = ADVANCED_FACE ( 'NONE', ( #122 ), #207, .T. ) ;
#215 = APPROVAL_PERSON_ORGANIZATION ( #32, #239, #147 ) ;
#216 = TOROIDAL_SURFACE ( 'NONE', #47, 3.450000000000000178, 0.2000000000000000111 ) ;
#217 = SECURITY_CLASSIFICATION ( '', '', #286 ) ;
#218 = EDGE_CURVE ( 'NONE', #154, #3, #72, .T. ) ;
#219 = DATE_TIME_ROLE ( 'classification_date' ) ;
#220 = ORIENTED_EDGE ( 'NONE', *, *, #222, .F. ) ;
#221 = CC_DESIGN_DATE_AND_TIME_ASSIGNMENT ( #240, #197, ( #52 ) ) ;
#222 = EDGE_CURVE ( 'NONE', #42, #154, #258, .T. ) ;
#223 = ORIENTED_EDGE ( 'NONE', *, *, #236, .F. ) ;
#224 = CARTESIAN_POINT ( 'NONE',  ( 0.000000000000000000, 0.000000000000000000, 5.000000000000000000 ) ) ;
#225 = DIRECTION ( 'NONE',  ( 0.000000000000000000, -1.000000000000000000, 0.000000000000000000 ) ) ;
#226 = APPROVAL_ROLE ( '' ) ;
#227 = ORIENTED_EDGE ( 'NONE', *, *, #195, .F. ) ;
#228 = DIRECTION ( 'NONE',  ( 0.000000000000000000, 0.000000000000000000, 1.000000000000000000 ) ) ;
#229 = FACE_OUTER_BOUND ( 'NONE', #60, .T. ) ;
#230 = LOCAL_TIME ( 14, 38, 57.00000000000000000, #53 ) ;
#231 = PLANE ( 'NONE',  #282 ) ;
#232 = CARTESIAN_POINT ( 'NONE',  ( 0.000000000000000000, 0.000000000000000000, 5.000000000000000000 ) ) ;
#233 = APPLICATION_PROTOCOL_DEFINITION ( 'international standard', 'config_control_design', 1994, #18 ) ;
#234 = EDGE_LOOP ( 'NONE', ( #14, #246 ) ) ;
#235 = CARTESIAN_POINT ( 'NONE',  ( 6.000000000000000888, 7.347880794884120722E-16, 5.000000000000000000 ) ) ;
#236 = EDGE_CURVE ( 'NONE', #6, #133, #196, .T. ) ;
#237 = ADVANCED_BREP_SHAPE_REPRESENTATION ( '890f', ( #307, #241 ), #70 ) ;
#238 = LOCAL_TIME ( 14, 38, 57.00000000000000000, #157 ) ;
#239 = APPROVAL ( #2, 'NEURÈENÝ' ) ;
#240 = DATE_AND_TIME ( #184, #238 ) ;
#241 = AXIS2_PLACEMENT_3D ( 'NONE', #255, #77, #204 ) ;
#242 = EDGE_CURVE ( 'NONE', #54, #42, #40, .T. ) ;
#243 = EDGE_LOOP ( 'NONE', ( #37, #87, #291, #78 ) ) ;
#244 = APPROVAL_DATE_TIME ( #124, #239 ) ;
#245 = APPROVAL_PERSON_ORGANIZATION ( #104, #20, #143 ) ;
#246 = ORIENTED_EDGE ( 'NONE', *, *, #21, .T. ) ;
#247 = AXIS2_PLACEMENT_3D ( 'NONE', #151, #225, #274 ) ;
#248 = CARTESIAN_POINT ( 'NONE',  ( 0.000000000000000000, 0.000000000000000000, 205.0000000000000284 ) ) ;
#249 = CALENDAR_DATE ( 2022, 7, 7 ) ;
#250 = EDGE_LOOP ( 'NONE', ( #267, #33 ) ) ;
#251 = CARTESIAN_POINT ( 'NONE',  ( 3.250000000000000444, 3.980102097228898231E-16, 205.0000000000000284 ) ) ;
#252 = CARTESIAN_POINT ( 'NONE',  ( 6.000000000000000888, 7.347880794884120722E-16, 5.000000000000000000 ) ) ;
#253 =( NAMED_UNIT ( * ) PLANE_ANGLE_UNIT ( ) SI_UNIT ( $, .RADIAN. ) );
#254 = CARTESIAN_POINT ( 'NONE',  ( 0.000000000000000000, 0.000000000000000000, 5.200000000000009948 ) ) ;
#255 = CARTESIAN_POINT ( 'NONE',  ( 0.000000000000000000, 0.000000000000000000, 0.000000000000000000 ) ) ;
#256 = AXIS2_PLACEMENT_3D ( 'NONE', #82, #180, #84 ) ;
#257 = VERTEX_POINT ( 'NONE', #88 ) ;
#258 = LINE ( 'NONE', #270, #149 ) ;
#259 = DIRECTION ( 'NONE',  ( 0.000000000000000000, 0.000000000000000000, 1.000000000000000000 ) ) ;
#260 = CARTESIAN_POINT ( 'NONE',  ( 0.000000000000000000, 0.000000000000000000, 205.0000000000000284 ) ) ;
#261 = CC_DESIGN_PERSON_AND_ORGANIZATION_ASSIGNMENT ( #209, #75, ( #130 ) ) ;
#262 = CC_DESIGN_PERSON_AND_ORGANIZATION_ASSIGNMENT ( #283, #86, ( #52 ) ) ;
#263 = ADVANCED_FACE ( 'NONE', ( #186 ), #231, .T. ) ;
#264 = VECTOR ( 'NONE', #44, 1000.000000000000000 ) ;
#265 = PERSON_AND_ORGANIZATION ( #135, #192 ) ;
#266 = APPLICATION_CONTEXT ( 'configuration controlled 3d designs of mechanical parts and assemblies' ) ;
#267 = ORIENTED_EDGE ( 'NONE', *, *, #24, .T. ) ;
#268 = CARTESIAN_POINT ( 'NONE',  ( 0.000000000000000000, 0.000000000000000000, 5.200000000000009948 ) ) ;
#269 = ORIENTED_EDGE ( 'NONE', *, *, #191, .F. ) ;
#270 = CARTESIAN_POINT ( 'NONE',  ( 3.250000000000000444, 3.980102097228898231E-16, 205.0000000000000284 ) ) ;
#271 = CARTESIAN_POINT ( 'NONE',  ( 0.000000000000000000, 0.000000000000000000, 5.000000000000000000 ) ) ;
#272 = ORIENTED_EDGE ( 'NONE', *, *, #140, .T. ) ;
#273 = CYLINDRICAL_SURFACE ( 'NONE', #178, 6.000000000000000888 ) ;
#274 = DIRECTION ( 'NONE',  ( 0.000000000000000000, 0.000000000000000000, -1.000000000000000000 ) ) ;
#275 = PERSON_AND_ORGANIZATION_ROLE ( 'design_owner' ) ;
#276 = ADVANCED_FACE ( 'NONE', ( #278 ), #273, .T. ) ;
#277 = ORIENTED_EDGE ( 'NONE', *, *, #23, .T. ) ;
#278 = FACE_OUTER_BOUND ( 'NONE', #198, .T. ) ;
#279 = LINE ( 'NONE', #289, #264 ) ;
#280 = DIRECTION ( 'NONE',  ( 1.000000000000000000, 0.000000000000000000, 0.000000000000000000 ) ) ;
#281 = CC_DESIGN_DATE_AND_TIME_ASSIGNMENT ( #118, #219, ( #217 ) ) ;
#282 = AXIS2_PLACEMENT_3D ( 'NONE', #260, #165, #91 ) ;
#283 = PERSON_AND_ORGANIZATION ( #135, #192 ) ;
#284 = CIRCLE ( 'NONE', #170, 3.450000000000000178 ) ;
#285 = CIRCLE ( 'NONE', #169, 6.000000000000000888 ) ;
#286 = SECURITY_CLASSIFICATION_LEVEL ( 'unclassified' ) ;
#287 = ORIENTED_EDGE ( 'NONE', *, *, #17, .F. ) ;
#288 = ADVANCED_FACE ( 'NONE', ( #11 ), #179, .T. ) ;
#289 = CARTESIAN_POINT ( 'NONE',  ( -3.250000000000000444, 0.000000000000000000, 205.0000000000000284 ) ) ;
#290 = COORDINATED_UNIVERSAL_TIME_OFFSET ( 1, 0, .AHEAD. ) ;
#291 = ORIENTED_EDGE ( 'NONE', *, *, #113, .T. ) ;
#292 = DIRECTION ( 'NONE',  ( 0.000000000000000000, 0.000000000000000000, 1.000000000000000000 ) ) ;
#293 = PLANE ( 'NONE',  #256 ) ;
#294 = CALENDAR_DATE ( 2022, 7, 7 ) ;
#295 = ORIENTED_EDGE ( 'NONE', *, *, #90, .T. ) ;
#296 = CARTESIAN_POINT ( 'NONE',  ( -3.450000000000000178, 4.225031457058368824E-16, 5.000000000000005329 ) ) ;
#297 = DIRECTION ( 'NONE',  ( 0.000000000000000000, 0.000000000000000000, 1.000000000000000000 ) ) ;
#298 = ORIENTED_EDGE ( 'NONE', *, *, #113, .F. ) ;
#299 =( NAMED_UNIT ( * ) SI_UNIT ( $, .STERADIAN. ) SOLID_ANGLE_UNIT ( ) );
#300 = DIRECTION ( 'NONE',  ( -0.000000000000000000, -0.000000000000000000, -1.000000000000000000 ) ) ;
#301 = DIRECTION ( 'NONE',  ( 1.000000000000000000, 0.000000000000000000, 0.000000000000000000 ) ) ;
#302 = CARTESIAN_POINT ( 'NONE',  ( -6.000000000000000888, 0.000000000000000000, 5.000000000000000000 ) ) ;
#303 = LOCAL_TIME ( 14, 38, 57.00000000000000000, #25 ) ;
#304 = APPROVAL_PERSON_ORGANIZATION ( #56, #190, #226 ) ;
#305 = EDGE_CURVE ( 'NONE', #42, #54, #1, .T. ) ;
#306 = AXIS2_PLACEMENT_3D ( 'NONE', #58, #159, #301 ) ;
#307 = MANIFOLD_SOLID_BREP ( 'Zaoblit1', #142 ) ;
ENDSEC;
END-ISO-10303-21;
