ISO-10303-21;
HEADER;
FILE_DESCRIPTION (( 'STEP AP203' ),
    '1' );
FILE_NAME ('fb0c.STEP',
    '2023-02-12T11:21:07',
    ( '' ),
    ( '' ),
    'SwSTEP 2.0',
    'SolidWorks 2019',
    '' );
FILE_SCHEMA (( 'CONFIG_CONTROL_DESIGN' ));
ENDSEC;

DATA;
#1 = ORIENTED_EDGE ( 'NONE', *, *, #166, .T. ) ;
#2 = CC_DESIGN_APPROVAL ( #70, ( #60 ) ) ;
#3 = ORIENTED_EDGE ( 'NONE', *, *, #135, .F. ) ;
#4 = ORIENTED_EDGE ( 'NONE', *, *, #210, .F. ) ;
#5 = CARTESIAN_POINT ( 'NONE',  ( 3.750000000000000000, 4.592425496802572986E-16, 400.0000000000000000 ) ) ;
#6 = CARTESIAN_POINT ( 'NONE',  ( 6.000000000000000888, 7.347880794884120722E-16, 5.000000000000000000 ) ) ;
#7 = DIRECTION ( 'NONE',  ( 1.000000000000000000, 0.000000000000000000, 0.000000000000000000 ) ) ;
#8 = CARTESIAN_POINT ( 'NONE',  ( 0.000000000000000000, 0.000000000000000000, 5.000000000000000000 ) ) ;
#9 = MANIFOLD_SOLID_BREP ( 'Pøidat vysunutím3', #83 ) ;
#10 = CARTESIAN_POINT ( 'NONE',  ( 0.000000000000000000, 0.000000000000000000, 0.000000000000000000 ) ) ;
#11 = AXIS2_PLACEMENT_3D ( 'NONE', #103, #124, #107 ) ;
#12 = ADVANCED_FACE ( 'NONE', ( #160 ), #240, .T. ) ;
#13 = PERSON_AND_ORGANIZATION_ROLE ( 'classification_officer' ) ;
#14 = COORDINATED_UNIVERSAL_TIME_OFFSET ( 1, 0, .AHEAD. ) ;
#15 = CALENDAR_DATE ( 2023, 12, 2 ) ;
#16 = APPLICATION_CONTEXT ( 'configuration controlled 3d designs of mechanical parts and assemblies' ) ;
#17 = COORDINATED_UNIVERSAL_TIME_OFFSET ( 1, 0, .AHEAD. ) ;
#18 = ORIENTED_EDGE ( 'NONE', *, *, #135, .T. ) ;
#19 = FACE_OUTER_BOUND ( 'NONE', #61, .T. ) ;
#20 = DESIGN_CONTEXT ( 'detailed design', #105, 'design' ) ;
#21 = EDGE_LOOP ( 'NONE', ( #18, #177 ) ) ;
#22 = ORIENTED_EDGE ( 'NONE', *, *, #206, .F. ) ;
#23 = AXIS2_PLACEMENT_3D ( 'NONE', #28, #145, #228 ) ;
#24 = DIRECTION ( 'NONE',  ( 0.000000000000000000, 0.000000000000000000, 1.000000000000000000 ) ) ;
#25 = DIRECTION ( 'NONE',  ( -0.000000000000000000, -0.000000000000000000, -1.000000000000000000 ) ) ;
#26 = FACE_OUTER_BOUND ( 'NONE', #203, .T. ) ;
#27 = CARTESIAN_POINT ( 'NONE',  ( 0.000000000000000000, 0.000000000000000000, 400.0000000000000000 ) ) ;
#28 = CARTESIAN_POINT ( 'NONE',  ( 0.000000000000000000, 0.000000000000000000, 5.000000000000000000 ) ) ;
#29 = SECURITY_CLASSIFICATION_LEVEL ( 'unclassified' ) ;
#30 = VECTOR ( 'NONE', #25, 1000.000000000000000 ) ;
#31 = APPROVAL_STATUS ( 'not_yet_approved' ) ;
#32 = PERSON ( 'NEURÈENÝ', 'NEURÈENÝ', 'NEURÈENÝ', ('NEURÈENÝ'), ('NEURÈENÝ'), ('NEURÈENÝ') ) ;
#33 =( NAMED_UNIT ( * ) PLANE_ANGLE_UNIT ( ) SI_UNIT ( $, .RADIAN. ) );
#34 = COORDINATED_UNIVERSAL_TIME_OFFSET ( 1, 0, .AHEAD. ) ;
#35 = APPROVAL_DATE_TIME ( #169, #132 ) ;
#36 = CC_DESIGN_PERSON_AND_ORGANIZATION_ASSIGNMENT ( #118, #78, ( #60 ) ) ;
#37 = ORIENTED_EDGE ( 'NONE', *, *, #239, .T. ) ;
#38 = CIRCLE ( 'NONE', #241, 6.000000000000000888 ) ;
#39 = VERTEX_POINT ( 'NONE', #140 ) ;
#40 = VERTEX_POINT ( 'NONE', #122 ) ;
#41 = ADVANCED_FACE ( 'NONE', ( #64 ), #106, .T. ) ;
#42 = ADVANCED_BREP_SHAPE_REPRESENTATION ( 'fb0c', ( #9, #45 ), #94 ) ;
#43 = CYLINDRICAL_SURFACE ( 'NONE', #11, 3.750000000000000000 ) ;
#44 = APPROVAL_PERSON_ORGANIZATION ( #149, #70, #216 ) ;
#45 = AXIS2_PLACEMENT_3D ( 'NONE', #59, #151, #76 ) ;
#46 = DIRECTION ( 'NONE',  ( 1.000000000000000000, 0.000000000000000000, 0.000000000000000000 ) ) ;
#47 = CC_DESIGN_PERSON_AND_ORGANIZATION_ASSIGNMENT ( #53, #131, ( #178 ) ) ;
#48 = DIRECTION ( 'NONE',  ( 1.000000000000000000, 0.000000000000000000, 0.000000000000000000 ) ) ;
#49 = CARTESIAN_POINT ( 'NONE',  ( 0.000000000000000000, 0.000000000000000000, 5.000000000000000000 ) ) ;
#50 = CIRCLE ( 'NONE', #230, 3.750000000000000000 ) ;
#51 = FACE_OUTER_BOUND ( 'NONE', #102, .T. ) ;
#52 = APPROVAL ( #236, 'NEURÈENÝ' ) ;
#53 = PERSON_AND_ORGANIZATION ( #32, #237 ) ;
#54 = PERSON_AND_ORGANIZATION ( #32, #237 ) ;
#55 = ADVANCED_FACE ( 'NONE', ( #19 ), #43, .T. ) ;
#56 = LOCAL_TIME ( 12, 21, 7.000000000000000000, #168 ) ;
#57 = CC_DESIGN_APPROVAL ( #132, ( #247 ) ) ;
#58 = CALENDAR_DATE ( 2023, 12, 2 ) ;
#59 = CARTESIAN_POINT ( 'NONE',  ( 0.000000000000000000, 0.000000000000000000, 0.000000000000000000 ) ) ;
#60 = PRODUCT_DEFINITION ( 'NEZNÁMÝ', '', #178, #20 ) ;
#61 = EDGE_LOOP ( 'NONE', ( #4, #141, #179, #1 ) ) ;
#62 = DIRECTION ( 'NONE',  ( 0.000000000000000000, 0.000000000000000000, 1.000000000000000000 ) ) ;
#63 = ORIENTED_EDGE ( 'NONE', *, *, #154, .F. ) ;
#64 = FACE_OUTER_BOUND ( 'NONE', #199, .T. ) ;
#65 = CIRCLE ( 'NONE', #176, 3.750000000000000000 ) ;
#66 = CARTESIAN_POINT ( 'NONE',  ( 0.000000000000000000, 0.000000000000000000, 5.000000000000000000 ) ) ;
#67 = CC_DESIGN_SECURITY_CLASSIFICATION ( #247, ( #178 ) ) ;
#68 = DIRECTION ( 'NONE',  ( -0.000000000000000000, -0.000000000000000000, -1.000000000000000000 ) ) ;
#69 = CARTESIAN_POINT ( 'NONE',  ( 0.000000000000000000, 0.000000000000000000, 0.000000000000000000 ) ) ;
#70 = APPROVAL ( #193, 'NEURÈENÝ' ) ;
#71 = DIRECTION ( 'NONE',  ( 1.000000000000000000, 0.000000000000000000, 0.000000000000000000 ) ) ;
#72 = VECTOR ( 'NONE', #248, 1000.000000000000000 ) ;
#73 = CIRCLE ( 'NONE', #221, 6.000000000000000888 ) ;
#74 = CARTESIAN_POINT ( 'NONE',  ( -6.000000000000000888, 0.000000000000000000, 0.000000000000000000 ) ) ;
#75 = DATE_TIME_ROLE ( 'classification_date' ) ;
#76 = DIRECTION ( 'NONE',  ( 1.000000000000000000, 0.000000000000000000, 0.000000000000000000 ) ) ;
#77 =( LENGTH_UNIT ( ) NAMED_UNIT ( * ) SI_UNIT ( .MILLI., .METRE. ) );
#78 = PERSON_AND_ORGANIZATION_ROLE ( 'creator' ) ;
#79 = ORIENTED_EDGE ( 'NONE', *, *, #97, .T. ) ;
#80 = VERTEX_POINT ( 'NONE', #5 ) ;
#81 = CC_DESIGN_DATE_AND_TIME_ASSIGNMENT ( #98, #150, ( #60 ) ) ;
#82 = ORIENTED_EDGE ( 'NONE', *, *, #245, .T. ) ;
#83 = CLOSED_SHELL ( 'NONE', ( #217, #185, #41, #234, #119, #55, #12 ) ) ;
#84 = ORIENTED_EDGE ( 'NONE', *, *, #202, .F. ) ;
#85 = CARTESIAN_POINT ( 'NONE',  ( 0.000000000000000000, 0.000000000000000000, 0.000000000000000000 ) ) ;
#86 = PLANE ( 'NONE',  #162 ) ;
#87 = AXIS2_PLACEMENT_3D ( 'NONE', #85, #189, #71 ) ;
#88 = LOCAL_TIME ( 12, 21, 7.000000000000000000, #152 ) ;
#89 = UNCERTAINTY_MEASURE_WITH_UNIT (LENGTH_MEASURE( 1.000000000000000082E-05 ), #77, 'distance_accuracy_value', 'NONE');
#90 = DIRECTION ( 'NONE',  ( 1.000000000000000000, 0.000000000000000000, 0.000000000000000000 ) ) ;
#91 = DIRECTION ( 'NONE',  ( -0.000000000000000000, -0.000000000000000000, -1.000000000000000000 ) ) ;
#92 = CYLINDRICAL_SURFACE ( 'NONE', #23, 6.000000000000000888 ) ;
#93 = AXIS2_PLACEMENT_3D ( 'NONE', #181, #242, #201 ) ;
#94 =( GEOMETRIC_REPRESENTATION_CONTEXT ( 3 ) GLOBAL_UNCERTAINTY_ASSIGNED_CONTEXT ( ( #89 ) ) GLOBAL_UNIT_ASSIGNED_CONTEXT ( ( #77, #33, #194 ) ) REPRESENTATION_CONTEXT ( 'NONE', 'WORKASPACE' ) );
#95 = CALENDAR_DATE ( 2023, 12, 2 ) ;
#96 = CALENDAR_DATE ( 2023, 12, 2 ) ;
#97 = EDGE_CURVE ( 'NONE', #238, #39, #100, .T. ) ;
#98 = DATE_AND_TIME ( #15, #143 ) ;
#99 = ORIENTED_EDGE ( 'NONE', *, *, #245, .F. ) ;
#100 = CIRCLE ( 'NONE', #87, 6.000000000000000888 ) ;
#101 = CC_DESIGN_APPROVAL ( #52, ( #178 ) ) ;
#102 = EDGE_LOOP ( 'NONE', ( #155, #84 ) ) ;
#103 = CARTESIAN_POINT ( 'NONE',  ( 0.000000000000000000, 0.000000000000000000, 400.0000000000000000 ) ) ;
#104 = PRODUCT_DEFINITION_SHAPE ( 'NONE', 'NONE',  #60 ) ;
#105 = APPLICATION_CONTEXT ( 'configuration controlled 3d designs of mechanical parts and assemblies' ) ;
#106 = CYLINDRICAL_SURFACE ( 'NONE', #93, 6.000000000000000888 ) ;
#107 = DIRECTION ( 'NONE',  ( -1.000000000000000000, 0.000000000000000000, 0.000000000000000000 ) ) ;
#108 = CIRCLE ( 'NONE', #235, 3.750000000000000000 ) ;
#109 = EDGE_CURVE ( 'NONE', #156, #80, #65, .T. ) ;
#110 = FACE_OUTER_BOUND ( 'NONE', #180, .T. ) ;
#111 = CARTESIAN_POINT ( 'NONE',  ( 0.000000000000000000, 0.000000000000000000, 400.0000000000000000 ) ) ;
#112 = CARTESIAN_POINT ( 'NONE',  ( -3.750000000000000000, 0.000000000000000000, 400.0000000000000000 ) ) ;
#113 = LINE ( 'NONE', #187, #72 ) ;
#114 = FACE_OUTER_BOUND ( 'NONE', #21, .T. ) ;
#115 = PERSON_AND_ORGANIZATION ( #32, #237 ) ;
#116 = VECTOR ( 'NONE', #208, 1000.000000000000000 ) ;
#117 = PERSON_AND_ORGANIZATION_ROLE ( 'design_owner' ) ;
#118 = PERSON_AND_ORGANIZATION ( #32, #237 ) ;
#119 = ADVANCED_FACE ( 'NONE', ( #51 ), #207, .F. ) ;
#120 = ORIENTED_EDGE ( 'NONE', *, *, #210, .T. ) ;
#121 = AXIS2_PLACEMENT_3D ( 'NONE', #10, #205, #164 ) ;
#122 = CARTESIAN_POINT ( 'NONE',  ( 3.750000000000000000, 4.592425496802572986E-16, 5.000000000000000000 ) ) ;
#123 = VERTEX_POINT ( 'NONE', #188 ) ;
#124 = DIRECTION ( 'NONE',  ( -0.000000000000000000, -0.000000000000000000, -1.000000000000000000 ) ) ;
#125 = DIRECTION ( 'NONE',  ( 0.000000000000000000, 0.000000000000000000, 1.000000000000000000 ) ) ;
#126 = DIRECTION ( 'NONE',  ( 0.000000000000000000, 0.000000000000000000, 1.000000000000000000 ) ) ;
#127 = CARTESIAN_POINT ( 'NONE',  ( 0.000000000000000000, 0.000000000000000000, 5.000000000000000000 ) ) ;
#128 = AXIS2_PLACEMENT_3D ( 'NONE', #111, #24, #130 ) ;
#129 = DIRECTION ( 'NONE',  ( 0.000000000000000000, 0.000000000000000000, 1.000000000000000000 ) ) ;
#130 = DIRECTION ( 'NONE',  ( 1.000000000000000000, 0.000000000000000000, 0.000000000000000000 ) ) ;
#131 = PERSON_AND_ORGANIZATION_ROLE ( 'creator' ) ;
#132 = APPROVAL ( #31, 'NEURÈENÝ' ) ;
#133 = PERSON_AND_ORGANIZATION ( #32, #237 ) ;
#134 = DATE_AND_TIME ( #58, #88 ) ;
#135 = EDGE_CURVE ( 'NONE', #197, #219, #38, .T. ) ;
#136 = APPLICATION_PROTOCOL_DEFINITION ( 'international standard', 'config_control_design', 1994, #16 ) ;
#137 = ORIENTED_EDGE ( 'NONE', *, *, #158, .T. ) ;
#138 = ORIENTED_EDGE ( 'NONE', *, *, #109, .T. ) ;
#139 = AXIS2_PLACEMENT_3D ( 'NONE', #244, #62, #220 ) ;
#140 = CARTESIAN_POINT ( 'NONE',  ( 6.000000000000000888, 7.347880794884120722E-16, 0.000000000000000000 ) ) ;
#141 = ORIENTED_EDGE ( 'NONE', *, *, #109, .F. ) ;
#142 = PRODUCT ( 'fb0c', 'fb0c', '', ( #215 ) ) ;
#143 = LOCAL_TIME ( 12, 21, 7.000000000000000000, #17 ) ;
#144 = DIRECTION ( 'NONE',  ( 0.000000000000000000, 0.000000000000000000, 1.000000000000000000 ) ) ;
#145 = DIRECTION ( 'NONE',  ( -0.000000000000000000, -0.000000000000000000, -1.000000000000000000 ) ) ;
#146 = LINE ( 'NONE', #250, #157 ) ;
#147 = CARTESIAN_POINT ( 'NONE',  ( 3.750000000000000000, 4.592425496802572986E-16, 400.0000000000000000 ) ) ;
#148 = CC_DESIGN_PERSON_AND_ORGANIZATION_ASSIGNMENT ( #171, #117, ( #142 ) ) ;
#149 = PERSON_AND_ORGANIZATION ( #32, #237 ) ;
#150 = DATE_TIME_ROLE ( 'creation_date' ) ;
#151 = DIRECTION ( 'NONE',  ( 0.000000000000000000, 0.000000000000000000, 1.000000000000000000 ) ) ;
#152 = COORDINATED_UNIVERSAL_TIME_OFFSET ( 1, 0, .AHEAD. ) ;
#153 = EDGE_LOOP ( 'NONE', ( #243, #224 ) ) ;
#154 = EDGE_CURVE ( 'NONE', #80, #156, #186, .T. ) ;
#155 = ORIENTED_EDGE ( 'NONE', *, *, #97, .F. ) ;
#156 = VERTEX_POINT ( 'NONE', #112 ) ;
#157 = VECTOR ( 'NONE', #68, 1000.000000000000000 ) ;
#158 = EDGE_CURVE ( 'NONE', #219, #39, #146, .T. ) ;
#159 = ORIENTED_EDGE ( 'NONE', *, *, #202, .T. ) ;
#160 = FACE_OUTER_BOUND ( 'NONE', #204, .T. ) ;
#161 = CARTESIAN_POINT ( 'NONE',  ( 0.000000000000000000, 0.000000000000000000, 5.000000000000000000 ) ) ;
#162 = AXIS2_PLACEMENT_3D ( 'NONE', #161, #125, #252 ) ;
#163 = DIRECTION ( 'NONE',  ( 1.000000000000000000, 0.000000000000000000, 0.000000000000000000 ) ) ;
#164 = DIRECTION ( 'NONE',  ( 1.000000000000000000, 0.000000000000000000, -0.000000000000000000 ) ) ;
#165 = FACE_BOUND ( 'NONE', #153, .T. ) ;
#166 = EDGE_CURVE ( 'NONE', #123, #40, #50, .T. ) ;
#167 = DIRECTION ( 'NONE',  ( -1.000000000000000000, 0.000000000000000000, 0.000000000000000000 ) ) ;
#168 = COORDINATED_UNIVERSAL_TIME_OFFSET ( 1, 0, .AHEAD. ) ;
#169 = DATE_AND_TIME ( #95, #172 ) ;
#170 = CC_DESIGN_PERSON_AND_ORGANIZATION_ASSIGNMENT ( #255, #212, ( #178 ) ) ;
#171 = PERSON_AND_ORGANIZATION ( #32, #237 ) ;
#172 = LOCAL_TIME ( 12, 21, 7.000000000000000000, #14 ) ;
#173 = APPROVAL_DATE_TIME ( #134, #52 ) ;
#174 = APPROVAL_ROLE ( '' ) ;
#175 = CC_DESIGN_DATE_AND_TIME_ASSIGNMENT ( #233, #75, ( #247 ) ) ;
#176 = AXIS2_PLACEMENT_3D ( 'NONE', #231, #183, #7 ) ;
#177 = ORIENTED_EDGE ( 'NONE', *, *, #206, .T. ) ;
#178 = PRODUCT_DEFINITION_FORMATION_WITH_SPECIFIED_SOURCE ( 'LIBOVOLNÝ', '', #142, .NOT_KNOWN. ) ;
#179 = ORIENTED_EDGE ( 'NONE', *, *, #196, .T. ) ;
#180 = EDGE_LOOP ( 'NONE', ( #22, #137, #159, #99 ) ) ;
#181 = CARTESIAN_POINT ( 'NONE',  ( 0.000000000000000000, 0.000000000000000000, 5.000000000000000000 ) ) ;
#182 = ORIENTED_EDGE ( 'NONE', *, *, #158, .F. ) ;
#183 = DIRECTION ( 'NONE',  ( 0.000000000000000000, 0.000000000000000000, 1.000000000000000000 ) ) ;
#184 = CARTESIAN_POINT ( 'NONE',  ( -6.000000000000000888, 0.000000000000000000, 5.000000000000000000 ) ) ;
#185 = ADVANCED_FACE ( 'NONE', ( #110 ), #92, .T. ) ;
#186 = CIRCLE ( 'NONE', #128, 3.750000000000000000 ) ;
#187 = CARTESIAN_POINT ( 'NONE',  ( -3.750000000000000000, 0.000000000000000000, 400.0000000000000000 ) ) ;
#188 = CARTESIAN_POINT ( 'NONE',  ( -3.750000000000000000, 0.000000000000000000, 5.000000000000000000 ) ) ;
#189 = DIRECTION ( 'NONE',  ( 0.000000000000000000, 0.000000000000000000, 1.000000000000000000 ) ) ;
#190 = LOCAL_TIME ( 12, 21, 7.000000000000000000, #34 ) ;
#191 = APPROVAL_ROLE ( '' ) ;
#192 = PRODUCT_RELATED_PRODUCT_CATEGORY ( 'detail', '', ( #142 ) ) ;
#193 = APPROVAL_STATUS ( 'not_yet_approved' ) ;
#194 =( NAMED_UNIT ( * ) SI_UNIT ( $, .STERADIAN. ) SOLID_ANGLE_UNIT ( ) );
#195 = APPROVAL_DATE_TIME ( #213, #70 ) ;
#196 = EDGE_CURVE ( 'NONE', #156, #123, #113, .T. ) ;
#197 = VERTEX_POINT ( 'NONE', #246 ) ;
#198 = SHAPE_DEFINITION_REPRESENTATION ( #104, #42 ) ;
#199 = EDGE_LOOP ( 'NONE', ( #182, #3, #82, #79 ) ) ;
#200 = APPROVAL_PERSON_ORGANIZATION ( #133, #132, #191 ) ;
#201 = DIRECTION ( 'NONE',  ( -1.000000000000000000, 0.000000000000000000, 0.000000000000000000 ) ) ;
#202 = EDGE_CURVE ( 'NONE', #39, #238, #73, .T. ) ;
#203 = EDGE_LOOP ( 'NONE', ( #63, #120, #37, #223 ) ) ;
#204 = EDGE_LOOP ( 'NONE', ( #138, #222 ) ) ;
#205 = DIRECTION ( 'NONE',  ( 0.000000000000000000, 0.000000000000000000, 1.000000000000000000 ) ) ;
#206 = EDGE_CURVE ( 'NONE', #219, #197, #218, .T. ) ;
#207 = PLANE ( 'NONE',  #121 ) ;
#208 = DIRECTION ( 'NONE',  ( -0.000000000000000000, -0.000000000000000000, -1.000000000000000000 ) ) ;
#209 = LINE ( 'NONE', #147, #116 ) ;
#210 = EDGE_CURVE ( 'NONE', #80, #40, #209, .T. ) ;
#211 = DIRECTION ( 'NONE',  ( 0.000000000000000000, 0.000000000000000000, 1.000000000000000000 ) ) ;
#212 = PERSON_AND_ORGANIZATION_ROLE ( 'design_supplier' ) ;
#213 = DATE_AND_TIME ( #96, #190 ) ;
#214 = APPROVAL_PERSON_ORGANIZATION ( #54, #52, #174 ) ;
#215 = MECHANICAL_CONTEXT ( 'NONE', #16, 'mechanical' ) ;
#216 = APPROVAL_ROLE ( '' ) ;
#217 = ADVANCED_FACE ( 'NONE', ( #26 ), #249, .T. ) ;
#218 = CIRCLE ( 'NONE', #226, 6.000000000000000888 ) ;
#219 = VERTEX_POINT ( 'NONE', #6 ) ;
#220 = DIRECTION ( 'NONE',  ( 1.000000000000000000, 0.000000000000000000, -0.000000000000000000 ) ) ;
#221 = AXIS2_PLACEMENT_3D ( 'NONE', #69, #129, #48 ) ;
#222 = ORIENTED_EDGE ( 'NONE', *, *, #154, .T. ) ;
#223 = ORIENTED_EDGE ( 'NONE', *, *, #196, .F. ) ;
#224 = ORIENTED_EDGE ( 'NONE', *, *, #239, .F. ) ;
#225 = CC_DESIGN_PERSON_AND_ORGANIZATION_ASSIGNMENT ( #115, #13, ( #247 ) ) ;
#226 = AXIS2_PLACEMENT_3D ( 'NONE', #127, #211, #232 ) ;
#227 = LINE ( 'NONE', #184, #30 ) ;
#228 = DIRECTION ( 'NONE',  ( -1.000000000000000000, 0.000000000000000000, 0.000000000000000000 ) ) ;
#229 = DIRECTION ( 'NONE',  ( 0.000000000000000000, 0.000000000000000000, 1.000000000000000000 ) ) ;
#230 = AXIS2_PLACEMENT_3D ( 'NONE', #49, #229, #163 ) ;
#231 = CARTESIAN_POINT ( 'NONE',  ( 0.000000000000000000, 0.000000000000000000, 400.0000000000000000 ) ) ;
#232 = DIRECTION ( 'NONE',  ( 1.000000000000000000, 0.000000000000000000, 0.000000000000000000 ) ) ;
#233 = DATE_AND_TIME ( #253, #56 ) ;
#234 = ADVANCED_FACE ( 'NONE', ( #165, #114 ), #86, .T. ) ;
#235 = AXIS2_PLACEMENT_3D ( 'NONE', #66, #144, #46 ) ;
#236 = APPROVAL_STATUS ( 'not_yet_approved' ) ;
#237 = ORGANIZATION ( 'NEURÈENÝ', 'NEURÈENÝ', '' ) ;
#238 = VERTEX_POINT ( 'NONE', #74 ) ;
#239 = EDGE_CURVE ( 'NONE', #40, #123, #108, .T. ) ;
#240 = PLANE ( 'NONE',  #139 ) ;
#241 = AXIS2_PLACEMENT_3D ( 'NONE', #8, #126, #90 ) ;
#242 = DIRECTION ( 'NONE',  ( -0.000000000000000000, -0.000000000000000000, -1.000000000000000000 ) ) ;
#243 = ORIENTED_EDGE ( 'NONE', *, *, #166, .F. ) ;
#244 = CARTESIAN_POINT ( 'NONE',  ( 0.000000000000000000, 0.000000000000000000, 400.0000000000000000 ) ) ;
#245 = EDGE_CURVE ( 'NONE', #197, #238, #227, .T. ) ;
#246 = CARTESIAN_POINT ( 'NONE',  ( -6.000000000000000888, 0.000000000000000000, 5.000000000000000000 ) ) ;
#247 = SECURITY_CLASSIFICATION ( '', '', #29 ) ;
#248 = DIRECTION ( 'NONE',  ( -0.000000000000000000, -0.000000000000000000, -1.000000000000000000 ) ) ;
#249 = CYLINDRICAL_SURFACE ( 'NONE', #251, 3.750000000000000000 ) ;
#250 = CARTESIAN_POINT ( 'NONE',  ( 6.000000000000000888, 7.347880794884120722E-16, 5.000000000000000000 ) ) ;
#251 = AXIS2_PLACEMENT_3D ( 'NONE', #27, #91, #167 ) ;
#252 = DIRECTION ( 'NONE',  ( 1.000000000000000000, 0.000000000000000000, -0.000000000000000000 ) ) ;
#253 = CALENDAR_DATE ( 2023, 12, 2 ) ;
#254 = APPLICATION_PROTOCOL_DEFINITION ( 'international standard', 'config_control_design', 1994, #105 ) ;
#255 = PERSON_AND_ORGANIZATION ( #32, #237 ) ;
ENDSEC;
END-ISO-10303-21;
