ISO-10303-21;
HEADER;
FILE_DESCRIPTION (( 'STEP AP203' ),
    '1' );
FILE_NAME ('3396.STEP',
    '2022-07-07T12:26:30',
    ( '' ),
    ( '' ),
    'SwSTEP 2.0',
    'SolidWorks 2019',
    '' );
FILE_SCHEMA (( 'CONFIG_CONTROL_DESIGN' ));
ENDSEC;

DATA;
#1 = ADVANCED_BREP_SHAPE_REPRESENTATION ( '3396', ( #186, #172 ), #160 ) ;
#2 = PRODUCT ( '3396', '3396', '', ( #305 ) ) ;
#3 = AXIS2_PLACEMENT_3D ( 'NONE', #58, #107, #16 ) ;
#4 = DIRECTION ( 'NONE',  ( -0.000000000000000000, -0.000000000000000000, -1.000000000000000000 ) ) ;
#5 = CARTESIAN_POINT ( 'NONE',  ( -8.000000000000000000, 0.000000000000000000, 5.000000000000000000 ) ) ;
#6 = CARTESIAN_POINT ( 'NONE',  ( 0.000000000000000000, 0.000000000000000000, 255.0000000000000000 ) ) ;
#7 = EDGE_CURVE ( 'NONE', #176, #162, #47, .T. ) ;
#8 = EDGE_CURVE ( 'NONE', #251, #116, #86, .T. ) ;
#9 = CARTESIAN_POINT ( 'NONE',  ( 0.000000000000000000, 0.000000000000000000, 5.000000000000000000 ) ) ;
#10 = SECURITY_CLASSIFICATION ( '', '', #257 ) ;
#11 = DIRECTION ( 'NONE',  ( 0.000000000000000000, 0.000000000000000000, 1.000000000000000000 ) ) ;
#12 = CARTESIAN_POINT ( 'NONE',  ( 5.099999999999999645, 6.245698675651500839E-16, 255.0000000000000000 ) ) ;
#13 = ADVANCED_FACE ( 'NONE', ( #79 ), #120, .F. ) ;
#14 = DIRECTION ( 'NONE',  ( 0.000000000000000000, 0.000000000000000000, 1.000000000000000000 ) ) ;
#15 = DIRECTION ( 'NONE',  ( 1.000000000000000000, 0.000000000000000000, 0.000000000000000000 ) ) ;
#16 = DIRECTION ( 'NONE',  ( 1.000000000000000000, 0.000000000000000000, 0.000000000000000000 ) ) ;
#17 = AXIS2_PLACEMENT_3D ( 'NONE', #193, #220, #167 ) ;
#18 = ORIENTED_EDGE ( 'NONE', *, *, #165, .T. ) ;
#19 = COORDINATED_UNIVERSAL_TIME_OFFSET ( 1, 0, .AHEAD. ) ;
#20 = CARTESIAN_POINT ( 'NONE',  ( -5.299999999999998934, 6.490628035480970938E-16, 5.200000000000009948 ) ) ;
#21 = CARTESIAN_POINT ( 'NONE',  ( 0.000000000000000000, 0.000000000000000000, 0.000000000000000000 ) ) ;
#22 = ORIENTED_EDGE ( 'NONE', *, *, #78, .T. ) ;
#23 = APPROVAL_ROLE ( '' ) ;
#24 = CIRCLE ( 'NONE', #93, 8.000000000000000000 ) ;
#25 = ORIENTED_EDGE ( 'NONE', *, *, #304, .T. ) ;
#26 = DATE_AND_TIME ( #70, #278 ) ;
#27 = EDGE_LOOP ( 'NONE', ( #255, #18 ) ) ;
#28 = ADVANCED_FACE ( 'NONE', ( #121, #269 ), #214, .T. ) ;
#29 = PRODUCT_DEFINITION_FORMATION_WITH_SPECIFIED_SOURCE ( 'LIBOVOLNÝ', '', #2, .NOT_KNOWN. ) ;
#30 = CARTESIAN_POINT ( 'NONE',  ( 8.000000000000000000, 9.797174393178825657E-16, 5.000000000000000000 ) ) ;
#31 = VECTOR ( 'NONE', #288, 1000.000000000000000 ) ;
#32 = ADVANCED_FACE ( 'NONE', ( #119 ), #57, .T. ) ;
#33 = EDGE_CURVE ( 'NONE', #198, #116, #122, .T. ) ;
#34 = CARTESIAN_POINT ( 'NONE',  ( -5.099999999999999645, 0.000000000000000000, 255.0000000000000000 ) ) ;
#35 = APPLICATION_CONTEXT ( 'configuration controlled 3d designs of mechanical parts and assemblies' ) ;
#36 = DIRECTION ( 'NONE',  ( -0.000000000000000000, -0.000000000000000000, -1.000000000000000000 ) ) ;
#37 = DIRECTION ( 'NONE',  ( 1.000000000000000000, 0.000000000000000000, -0.000000000000000000 ) ) ;
#38 = UNCERTAINTY_MEASURE_WITH_UNIT (LENGTH_MEASURE( 1.000000000000000082E-05 ), #85, 'distance_accuracy_value', 'NONE');
#39 = CARTESIAN_POINT ( 'NONE',  ( -8.000000000000000000, 0.000000000000000000, 0.000000000000000000 ) ) ;
#40 = CARTESIAN_POINT ( 'NONE',  ( 0.000000000000000000, 0.000000000000000000, 5.000000000000000000 ) ) ;
#41 = APPROVAL_PERSON_ORGANIZATION ( #161, #306, #135 ) ;
#42 = PERSON_AND_ORGANIZATION ( #140, #196 ) ;
#43 = ORIENTED_EDGE ( 'NONE', *, *, #270, .F. ) ;
#44 = APPROVAL_DATE_TIME ( #138, #244 ) ;
#45 = ORIENTED_EDGE ( 'NONE', *, *, #78, .F. ) ;
#46 = CALENDAR_DATE ( 2022, 7, 7 ) ;
#47 = CIRCLE ( 'NONE', #209, 0.1999999999999996503 ) ;
#48 = ORIENTED_EDGE ( 'NONE', *, *, #7, .F. ) ;
#49 = COORDINATED_UNIVERSAL_TIME_OFFSET ( 1, 0, .AHEAD. ) ;
#50 = EDGE_LOOP ( 'NONE', ( #98, #92, #303, #139 ) ) ;
#51 = DIRECTION ( 'NONE',  ( 1.000000000000000000, 0.000000000000000000, 0.000000000000000000 ) ) ;
#52 = CC_DESIGN_PERSON_AND_ORGANIZATION_ASSIGNMENT ( #97, #95, ( #2 ) ) ;
#53 = DIRECTION ( 'NONE',  ( 0.000000000000000000, 0.000000000000000000, 1.000000000000000000 ) ) ;
#54 = LOCAL_TIME ( 14, 26, 30.00000000000000000, #154 ) ;
#55 = CARTESIAN_POINT ( 'NONE',  ( 0.000000000000000000, 0.000000000000000000, 0.000000000000000000 ) ) ;
#56 = CARTESIAN_POINT ( 'NONE',  ( 8.000000000000000000, 9.797174393178825657E-16, 5.000000000000000000 ) ) ;
#57 = CYLINDRICAL_SURFACE ( 'NONE', #104, 5.099999999999999645 ) ;
#58 = CARTESIAN_POINT ( 'NONE',  ( 0.000000000000000000, 0.000000000000000000, 5.200000000000009948 ) ) ;
#59 = AXIS2_PLACEMENT_3D ( 'NONE', #6, #188, #51 ) ;
#60 = CIRCLE ( 'NONE', #3, 5.099999999999999645 ) ;
#61 = FACE_OUTER_BOUND ( 'NONE', #284, .T. ) ;
#62 = DIRECTION ( 'NONE',  ( -0.000000000000000000, -0.000000000000000000, -1.000000000000000000 ) ) ;
#63 = ADVANCED_FACE ( 'NONE', ( #289 ), #194, .F. ) ;
#64 = ADVANCED_FACE ( 'NONE', ( #267 ), #100, .T. ) ;
#65 = CARTESIAN_POINT ( 'NONE',  ( 0.000000000000000000, 0.000000000000000000, 5.200000000000009948 ) ) ;
#66 = ORIENTED_EDGE ( 'NONE', *, *, #76, .F. ) ;
#67 = VECTOR ( 'NONE', #4, 1000.000000000000000 ) ;
#68 = PERSON_AND_ORGANIZATION ( #140, #196 ) ;
#69 = ORIENTED_EDGE ( 'NONE', *, *, #8, .F. ) ;
#70 = CALENDAR_DATE ( 2022, 7, 7 ) ;
#71 = SHAPE_DEFINITION_REPRESENTATION ( #261, #1 ) ;
#72 = EDGE_LOOP ( 'NONE', ( #201, #74 ) ) ;
#73 = AXIS2_PLACEMENT_3D ( 'NONE', #84, #87, #268 ) ;
#74 = ORIENTED_EDGE ( 'NONE', *, *, #264, .T. ) ;
#75 = AXIS2_PLACEMENT_3D ( 'NONE', #266, #102, #145 ) ;
#76 = EDGE_CURVE ( 'NONE', #229, #176, #125, .T. ) ;
#77 = DIRECTION ( 'NONE',  ( 1.000000000000000000, 0.000000000000000000, -0.000000000000000000 ) ) ;
#78 = EDGE_CURVE ( 'NONE', #232, #90, #187, .T. ) ;
#79 = FACE_OUTER_BOUND ( 'NONE', #248, .T. ) ;
#80 = DIRECTION ( 'NONE',  ( 0.000000000000000000, 0.000000000000000000, 1.000000000000000000 ) ) ;
#81 = EDGE_CURVE ( 'NONE', #229, #232, #241, .T. ) ;
#82 = CIRCLE ( 'NONE', #210, 8.000000000000000000 ) ;
#83 = DIRECTION ( 'NONE',  ( 1.000000000000000000, 0.000000000000000000, 0.000000000000000000 ) ) ;
#84 = CARTESIAN_POINT ( 'NONE',  ( 0.000000000000000000, 0.000000000000000000, 5.000000000000000000 ) ) ;
#85 =( LENGTH_UNIT ( ) NAMED_UNIT ( * ) SI_UNIT ( .MILLI., .METRE. ) );
#86 = CIRCLE ( 'NONE', #254, 8.000000000000000000 ) ;
#87 = DIRECTION ( 'NONE',  ( -0.000000000000000000, -0.000000000000000000, -1.000000000000000000 ) ) ;
#88 = PRODUCT_RELATED_PRODUCT_CATEGORY ( 'detail', '', ( #2 ) ) ;
#89 = DIRECTION ( 'NONE',  ( 0.000000000000000000, 0.000000000000000000, 1.000000000000000000 ) ) ;
#90 = VERTEX_POINT ( 'NONE', #146 ) ;
#91 = APPROVAL_ROLE ( '' ) ;
#92 = ORIENTED_EDGE ( 'NONE', *, *, #260, .F. ) ;
#93 = AXIS2_PLACEMENT_3D ( 'NONE', #297, #89, #124 ) ;
#94 = PERSON_AND_ORGANIZATION ( #140, #196 ) ;
#95 = PERSON_AND_ORGANIZATION_ROLE ( 'design_owner' ) ;
#96 = ORIENTED_EDGE ( 'NONE', *, *, #165, .F. ) ;
#97 = PERSON_AND_ORGANIZATION ( #140, #196 ) ;
#98 = ORIENTED_EDGE ( 'NONE', *, *, #33, .F. ) ;
#99 = AXIS2_PLACEMENT_3D ( 'NONE', #9, #192, #37 ) ;
#100 = CYLINDRICAL_SURFACE ( 'NONE', #296, 5.099999999999999645 ) ;
#101 = FACE_OUTER_BOUND ( 'NONE', #72, .T. ) ;
#102 = DIRECTION ( 'NONE',  ( -0.000000000000000000, -0.000000000000000000, -1.000000000000000000 ) ) ;
#103 = DIRECTION ( 'NONE',  ( 1.000000000000000000, 0.000000000000000000, 0.000000000000000000 ) ) ;
#104 = AXIS2_PLACEMENT_3D ( 'NONE', #164, #238, #291 ) ;
#105 = CIRCLE ( 'NONE', #17, 5.099999999999999645 ) ;
#106 = TOROIDAL_SURFACE ( 'NONE', #217, 5.299999999999998934, 0.2000000000000000111 ) ;
#107 = DIRECTION ( 'NONE',  ( 0.000000000000000000, 0.000000000000000000, 1.000000000000000000 ) ) ;
#108 = DIRECTION ( 'NONE',  ( -0.000000000000000000, -0.000000000000000000, -1.000000000000000000 ) ) ;
#109 = ADVANCED_FACE ( 'NONE', ( #101 ), #293, .T. ) ;
#110 = CYLINDRICAL_SURFACE ( 'NONE', #290, 8.000000000000000000 ) ;
#111 = ORIENTED_EDGE ( 'NONE', *, *, #33, .T. ) ;
#112 = PERSON_AND_ORGANIZATION_ROLE ( 'creator' ) ;
#113 = ORIENTED_EDGE ( 'NONE', *, *, #213, .T. ) ;
#114 = APPLICATION_PROTOCOL_DEFINITION ( 'international standard', 'config_control_design', 1994, #35 ) ;
#115 = PERSON_AND_ORGANIZATION_ROLE ( 'design_supplier' ) ;
#116 = VERTEX_POINT ( 'NONE', #235 ) ;
#117 = APPROVAL_STATUS ( 'not_yet_approved' ) ;
#118 = ORIENTED_EDGE ( 'NONE', *, *, #213, .F. ) ;
#119 = FACE_OUTER_BOUND ( 'NONE', #282, .T. ) ;
#120 = TOROIDAL_SURFACE ( 'NONE', #183, 5.299999999999998934, 0.2000000000000000111 ) ;
#121 = FACE_BOUND ( 'NONE', #307, .T. ) ;
#122 = LINE ( 'NONE', #30, #67 ) ;
#123 = DESIGN_CONTEXT ( 'detailed design', #35, 'design' ) ;
#124 = DIRECTION ( 'NONE',  ( 1.000000000000000000, 0.000000000000000000, 0.000000000000000000 ) ) ;
#125 = LINE ( 'NONE', #34, #191 ) ;
#126 = DIRECTION ( 'NONE',  ( 1.000000000000000000, 0.000000000000000000, 0.000000000000000000 ) ) ;
#127 = EDGE_CURVE ( 'NONE', #233, #251, #211, .T. ) ;
#128 = EDGE_CURVE ( 'NONE', #162, #258, #204, .T. ) ;
#129 = CARTESIAN_POINT ( 'NONE',  ( 5.299999999999998934, 0.000000000000000000, 5.000000000000005329 ) ) ;
#130 = DIRECTION ( 'NONE',  ( -1.000000000000000000, 1.224646799147353454E-16, 0.000000000000000000 ) ) ;
#131 = ADVANCED_FACE ( 'NONE', ( #237 ), #190, .T. ) ;
#132 = AXIS2_PLACEMENT_3D ( 'NONE', #271, #14, #246 ) ;
#133 = APPROVAL_STATUS ( 'not_yet_approved' ) ;
#134 = ORIENTED_EDGE ( 'NONE', *, *, #270, .T. ) ;
#135 = APPROVAL_ROLE ( '' ) ;
#136 = ORIENTED_EDGE ( 'NONE', *, *, #285, .T. ) ;
#137 = PERSON_AND_ORGANIZATION ( #140, #196 ) ;
#138 = DATE_AND_TIME ( #224, #236 ) ;
#139 = ORIENTED_EDGE ( 'NONE', *, *, #8, .T. ) ;
#140 = PERSON ( 'NEURÈENÝ', 'NEURÈENÝ', 'NEURÈENÝ', ('NEURÈENÝ'), ('NEURÈENÝ'), ('NEURÈENÝ') ) ;
#141 = CC_DESIGN_DATE_AND_TIME_ASSIGNMENT ( #26, #280, ( #10 ) ) ;
#142 = ORIENTED_EDGE ( 'NONE', *, *, #128, .F. ) ;
#143 = APPROVAL_PERSON_ORGANIZATION ( #137, #295, #23 ) ;
#144 = DIRECTION ( 'NONE',  ( 1.000000000000000000, 0.000000000000000000, -0.000000000000000000 ) ) ;
#145 = DIRECTION ( 'NONE',  ( 1.000000000000000000, 0.000000000000000000, 0.000000000000000000 ) ) ;
#146 = CARTESIAN_POINT ( 'NONE',  ( 5.099999999999999645, 6.245698675651500839E-16, 5.200000000000009948 ) ) ;
#147 = CARTESIAN_POINT ( 'NONE',  ( -5.099999999999999645, 0.000000000000000000, 255.0000000000000000 ) ) ;
#148 = CARTESIAN_POINT ( 'NONE',  ( 0.000000000000000000, 0.000000000000000000, 255.0000000000000000 ) ) ;
#149 = CARTESIAN_POINT ( 'NONE',  ( -5.099999999999999645, 0.000000000000000000, 5.200000000000009948 ) ) ;
#150 = CIRCLE ( 'NONE', #132, 8.000000000000000000 ) ;
#151 = CARTESIAN_POINT ( 'NONE',  ( -8.000000000000000000, 0.000000000000000000, 5.000000000000000000 ) ) ;
#152 = EDGE_LOOP ( 'NONE', ( #48, #43, #25, #142 ) ) ;
#153 = CC_DESIGN_APPROVAL ( #244, ( #221 ) ) ;
#154 = COORDINATED_UNIVERSAL_TIME_OFFSET ( 1, 0, .AHEAD. ) ;
#155 = ORIENTED_EDGE ( 'NONE', *, *, #7, .T. ) ;
#156 = APPLICATION_PROTOCOL_DEFINITION ( 'international standard', 'config_control_design', 1994, #262 ) ;
#157 = PERSON_AND_ORGANIZATION_ROLE ( 'creator' ) ;
#158 = ORIENTED_EDGE ( 'NONE', *, *, #285, .F. ) ;
#159 = EDGE_CURVE ( 'NONE', #258, #162, #256, .T. ) ;
#160 =( GEOMETRIC_REPRESENTATION_CONTEXT ( 3 ) GLOBAL_UNCERTAINTY_ASSIGNED_CONTEXT ( ( #38 ) ) GLOBAL_UNIT_ASSIGNED_CONTEXT ( ( #85, #243, #219 ) ) REPRESENTATION_CONTEXT ( 'NONE', 'WORKASPACE' ) );
#161 = PERSON_AND_ORGANIZATION ( #140, #196 ) ;
#162 = VERTEX_POINT ( 'NONE', #215 ) ;
#163 = CARTESIAN_POINT ( 'NONE',  ( 0.000000000000000000, 0.000000000000000000, 255.0000000000000000 ) ) ;
#164 = CARTESIAN_POINT ( 'NONE',  ( 0.000000000000000000, 0.000000000000000000, 255.0000000000000000 ) ) ;
#165 = EDGE_CURVE ( 'NONE', #198, #233, #82, .T. ) ;
#166 = CARTESIAN_POINT ( 'NONE',  ( 0.000000000000000000, 0.000000000000000000, 0.000000000000000000 ) ) ;
#167 = DIRECTION ( 'NONE',  ( 1.000000000000000000, 0.000000000000000000, 0.000000000000000000 ) ) ;
#168 = DIRECTION ( 'NONE',  ( 0.000000000000000000, 0.000000000000000000, 1.000000000000000000 ) ) ;
#169 = DIRECTION ( 'NONE',  ( 0.000000000000000000, 0.000000000000000000, 1.000000000000000000 ) ) ;
#170 = AXIS2_PLACEMENT_3D ( 'NONE', #163, #53, #144 ) ;
#171 = CLOSED_SHELL ( 'NONE', ( #13, #64, #274, #131, #28, #63, #32, #109, #226 ) ) ;
#172 = AXIS2_PLACEMENT_3D ( 'NONE', #21, #228, #276 ) ;
#173 = DIRECTION ( 'NONE',  ( 1.000000000000000000, 0.000000000000000000, 0.000000000000000000 ) ) ;
#174 = CARTESIAN_POINT ( 'NONE',  ( 5.299999999999998934, 0.000000000000000000, 5.200000000000009948 ) ) ;
#175 = EDGE_LOOP ( 'NONE', ( #69, #158 ) ) ;
#176 = VERTEX_POINT ( 'NONE', #149 ) ;
#177 = LOCAL_TIME ( 14, 26, 30.00000000000000000, #19 ) ;
#178 = PERSON_AND_ORGANIZATION_ROLE ( 'classification_officer' ) ;
#179 = CC_DESIGN_DATE_AND_TIME_ASSIGNMENT ( #250, #231, ( #221 ) ) ;
#180 = ORIENTED_EDGE ( 'NONE', *, *, #127, .F. ) ;
#181 = APPROVAL_DATE_TIME ( #247, #306 ) ;
#182 = ORIENTED_EDGE ( 'NONE', *, *, #81, .F. ) ;
#183 = AXIS2_PLACEMENT_3D ( 'NONE', #265, #80, #83 ) ;
#184 = APPROVAL_PERSON_ORGANIZATION ( #68, #244, #91 ) ;
#185 = CC_DESIGN_SECURITY_CLASSIFICATION ( #10, ( #29 ) ) ;
#186 = MANIFOLD_SOLID_BREP ( 'Zaoblit1', #171 ) ;
#187 = LINE ( 'NONE', #12, #202 ) ;
#188 = DIRECTION ( 'NONE',  ( 0.000000000000000000, 0.000000000000000000, 1.000000000000000000 ) ) ;
#189 = CC_DESIGN_PERSON_AND_ORGANIZATION_ASSIGNMENT ( #42, #115, ( #29 ) ) ;
#190 = CYLINDRICAL_SURFACE ( 'NONE', #73, 8.000000000000000000 ) ;
#191 = VECTOR ( 'NONE', #212, 1000.000000000000000 ) ;
#192 = DIRECTION ( 'NONE',  ( 0.000000000000000000, 0.000000000000000000, 1.000000000000000000 ) ) ;
#193 = CARTESIAN_POINT ( 'NONE',  ( 0.000000000000000000, 0.000000000000000000, 255.0000000000000000 ) ) ;
#194 = PLANE ( 'NONE',  #263 ) ;
#195 = DIRECTION ( 'NONE',  ( 0.000000000000000000, 0.000000000000000000, 1.000000000000000000 ) ) ;
#196 = ORGANIZATION ( 'NEURÈENÝ', 'NEURÈENÝ', '' ) ;
#197 = CARTESIAN_POINT ( 'NONE',  ( 0.000000000000000000, 0.000000000000000000, 5.200000000000009948 ) ) ;
#198 = VERTEX_POINT ( 'NONE', #56 ) ;
#199 = CC_DESIGN_PERSON_AND_ORGANIZATION_ASSIGNMENT ( #252, #157, ( #221 ) ) ;
#200 = CALENDAR_DATE ( 2022, 7, 7 ) ;
#201 = ORIENTED_EDGE ( 'NONE', *, *, #81, .T. ) ;
#202 = VECTOR ( 'NONE', #108, 1000.000000000000000 ) ;
#203 = COORDINATED_UNIVERSAL_TIME_OFFSET ( 1, 0, .AHEAD. ) ;
#204 = CIRCLE ( 'NONE', #75, 5.299999999999998934 ) ;
#205 = CALENDAR_DATE ( 2022, 7, 7 ) ;
#206 = ORIENTED_EDGE ( 'NONE', *, *, #264, .F. ) ;
#207 = ORIENTED_EDGE ( 'NONE', *, *, #76, .T. ) ;
#208 = LOCAL_TIME ( 14, 26, 30.00000000000000000, #227 ) ;
#209 = AXIS2_PLACEMENT_3D ( 'NONE', #20, #301, #130 ) ;
#210 = AXIS2_PLACEMENT_3D ( 'NONE', #40, #169, #294 ) ;
#211 = LINE ( 'NONE', #5, #31 ) ;
#212 = DIRECTION ( 'NONE',  ( -0.000000000000000000, -0.000000000000000000, -1.000000000000000000 ) ) ;
#213 = EDGE_CURVE ( 'NONE', #176, #90, #286, .T. ) ;
#214 = PLANE ( 'NONE',  #99 ) ;
#215 = CARTESIAN_POINT ( 'NONE',  ( -5.299999999999998934, 6.490628035480970938E-16, 5.000000000000005329 ) ) ;
#216 = DIRECTION ( 'NONE',  ( -1.000000000000000000, 0.000000000000000000, 0.000000000000000000 ) ) ;
#217 = AXIS2_PLACEMENT_3D ( 'NONE', #197, #11, #173 ) ;
#218 = CARTESIAN_POINT ( 'NONE',  ( 0.000000000000000000, 0.000000000000000000, 5.000000000000000000 ) ) ;
#219 =( NAMED_UNIT ( * ) SI_UNIT ( $, .STERADIAN. ) SOLID_ANGLE_UNIT ( ) );
#220 = DIRECTION ( 'NONE',  ( 0.000000000000000000, 0.000000000000000000, 1.000000000000000000 ) ) ;
#221 = PRODUCT_DEFINITION ( 'NEZNÁMÝ', '', #29, #123 ) ;
#222 = ORIENTED_EDGE ( 'NONE', *, *, #304, .F. ) ;
#223 = AXIS2_PLACEMENT_3D ( 'NONE', #218, #62, #15 ) ;
#224 = CALENDAR_DATE ( 2022, 7, 7 ) ;
#225 = ORIENTED_EDGE ( 'NONE', *, *, #128, .T. ) ;
#226 = ADVANCED_FACE ( 'NONE', ( #272 ), #106, .F. ) ;
#227 = COORDINATED_UNIVERSAL_TIME_OFFSET ( 1, 0, .AHEAD. ) ;
#228 = DIRECTION ( 'NONE',  ( 0.000000000000000000, 0.000000000000000000, 1.000000000000000000 ) ) ;
#229 = VERTEX_POINT ( 'NONE', #147 ) ;
#230 = AXIS2_PLACEMENT_3D ( 'NONE', #174, #273, #242 ) ;
#231 = DATE_TIME_ROLE ( 'creation_date' ) ;
#232 = VERTEX_POINT ( 'NONE', #239 ) ;
#233 = VERTEX_POINT ( 'NONE', #151 ) ;
#234 = CIRCLE ( 'NONE', #230, 0.1999999999999996503 ) ;
#235 = CARTESIAN_POINT ( 'NONE',  ( 8.000000000000000000, 9.797174393178825657E-16, 0.000000000000000000 ) ) ;
#236 = LOCAL_TIME ( 14, 26, 30.00000000000000000, #203 ) ;
#237 = FACE_OUTER_BOUND ( 'NONE', #50, .T. ) ;
#238 = DIRECTION ( 'NONE',  ( -0.000000000000000000, -0.000000000000000000, -1.000000000000000000 ) ) ;
#239 = CARTESIAN_POINT ( 'NONE',  ( 5.099999999999999645, 6.245698675651500839E-16, 255.0000000000000000 ) ) ;
#240 = DIRECTION ( 'NONE',  ( -0.000000000000000000, -0.000000000000000000, -1.000000000000000000 ) ) ;
#241 = CIRCLE ( 'NONE', #59, 5.099999999999999645 ) ;
#242 = DIRECTION ( 'NONE',  ( 0.000000000000000000, 0.000000000000000000, -1.000000000000000000 ) ) ;
#243 =( NAMED_UNIT ( * ) PLANE_ANGLE_UNIT ( ) SI_UNIT ( $, .RADIAN. ) );
#244 = APPROVAL ( #117, 'NEURÈENÝ' ) ;
#245 = CC_DESIGN_PERSON_AND_ORGANIZATION_ASSIGNMENT ( #94, #112, ( #29 ) ) ;
#246 = DIRECTION ( 'NONE',  ( 1.000000000000000000, 0.000000000000000000, 0.000000000000000000 ) ) ;
#247 = DATE_AND_TIME ( #46, #208 ) ;
#248 = EDGE_LOOP ( 'NONE', ( #118, #155, #277, #222 ) ) ;
#249 = CC_DESIGN_APPROVAL ( #295, ( #10 ) ) ;
#250 = DATE_AND_TIME ( #200, #54 ) ;
#251 = VERTEX_POINT ( 'NONE', #39 ) ;
#252 = PERSON_AND_ORGANIZATION ( #140, #196 ) ;
#253 = DATE_AND_TIME ( #205, #177 ) ;
#254 = AXIS2_PLACEMENT_3D ( 'NONE', #55, #287, #103 ) ;
#255 = ORIENTED_EDGE ( 'NONE', *, *, #260, .T. ) ;
#256 = CIRCLE ( 'NONE', #223, 5.299999999999998934 ) ;
#257 = SECURITY_CLASSIFICATION_LEVEL ( 'unclassified' ) ;
#258 = VERTEX_POINT ( 'NONE', #129 ) ;
#259 = CC_DESIGN_PERSON_AND_ORGANIZATION_ASSIGNMENT ( #283, #178, ( #10 ) ) ;
#260 = EDGE_CURVE ( 'NONE', #233, #198, #150, .T. ) ;
#261 = PRODUCT_DEFINITION_SHAPE ( 'NONE', 'NONE',  #221 ) ;
#262 = APPLICATION_CONTEXT ( 'configuration controlled 3d designs of mechanical parts and assemblies' ) ;
#263 = AXIS2_PLACEMENT_3D ( 'NONE', #166, #168, #77 ) ;
#264 = EDGE_CURVE ( 'NONE', #232, #229, #105, .T. ) ;
#265 = CARTESIAN_POINT ( 'NONE',  ( 0.000000000000000000, 0.000000000000000000, 5.200000000000009948 ) ) ;
#266 = CARTESIAN_POINT ( 'NONE',  ( 0.000000000000000000, 0.000000000000000000, 5.000000000000000000 ) ) ;
#267 = FACE_OUTER_BOUND ( 'NONE', #275, .T. ) ;
#268 = DIRECTION ( 'NONE',  ( -1.000000000000000000, 0.000000000000000000, 0.000000000000000000 ) ) ;
#269 = FACE_OUTER_BOUND ( 'NONE', #27, .T. ) ;
#270 = EDGE_CURVE ( 'NONE', #90, #176, #60, .T. ) ;
#271 = CARTESIAN_POINT ( 'NONE',  ( 0.000000000000000000, 0.000000000000000000, 5.000000000000000000 ) ) ;
#272 = FACE_OUTER_BOUND ( 'NONE', #152, .T. ) ;
#273 = DIRECTION ( 'NONE',  ( 0.000000000000000000, -1.000000000000000000, 0.000000000000000000 ) ) ;
#274 = ADVANCED_FACE ( 'NONE', ( #61 ), #110, .T. ) ;
#275 = EDGE_LOOP ( 'NONE', ( #206, #22, #134, #66 ) ) ;
#276 = DIRECTION ( 'NONE',  ( 1.000000000000000000, 0.000000000000000000, 0.000000000000000000 ) ) ;
#277 = ORIENTED_EDGE ( 'NONE', *, *, #159, .F. ) ;
#278 = LOCAL_TIME ( 14, 26, 30.00000000000000000, #49 ) ;
#279 = CC_DESIGN_APPROVAL ( #306, ( #29 ) ) ;
#280 = DATE_TIME_ROLE ( 'classification_date' ) ;
#281 = APPROVAL_DATE_TIME ( #253, #295 ) ;
#282 = EDGE_LOOP ( 'NONE', ( #45, #182, #207, #113 ) ) ;
#283 = PERSON_AND_ORGANIZATION ( #140, #196 ) ;
#284 = EDGE_LOOP ( 'NONE', ( #96, #111, #136, #180 ) ) ;
#285 = EDGE_CURVE ( 'NONE', #116, #251, #24, .T. ) ;
#286 = CIRCLE ( 'NONE', #298, 5.099999999999999645 ) ;
#287 = DIRECTION ( 'NONE',  ( 0.000000000000000000, 0.000000000000000000, 1.000000000000000000 ) ) ;
#288 = DIRECTION ( 'NONE',  ( -0.000000000000000000, -0.000000000000000000, -1.000000000000000000 ) ) ;
#289 = FACE_OUTER_BOUND ( 'NONE', #175, .T. ) ;
#290 = AXIS2_PLACEMENT_3D ( 'NONE', #292, #36, #299 ) ;
#291 = DIRECTION ( 'NONE',  ( -1.000000000000000000, 0.000000000000000000, 0.000000000000000000 ) ) ;
#292 = CARTESIAN_POINT ( 'NONE',  ( 0.000000000000000000, 0.000000000000000000, 5.000000000000000000 ) ) ;
#293 = PLANE ( 'NONE',  #170 ) ;
#294 = DIRECTION ( 'NONE',  ( 1.000000000000000000, 0.000000000000000000, 0.000000000000000000 ) ) ;
#295 = APPROVAL ( #133, 'NEURÈENÝ' ) ;
#296 = AXIS2_PLACEMENT_3D ( 'NONE', #148, #240, #216 ) ;
#297 = CARTESIAN_POINT ( 'NONE',  ( 0.000000000000000000, 0.000000000000000000, 0.000000000000000000 ) ) ;
#298 = AXIS2_PLACEMENT_3D ( 'NONE', #65, #195, #126 ) ;
#299 = DIRECTION ( 'NONE',  ( -1.000000000000000000, 0.000000000000000000, 0.000000000000000000 ) ) ;
#300 = ORIENTED_EDGE ( 'NONE', *, *, #159, .T. ) ;
#301 = DIRECTION ( 'NONE',  ( 1.224646799147353207E-16, 1.000000000000000000, -0.000000000000000000 ) ) ;
#302 = APPROVAL_STATUS ( 'not_yet_approved' ) ;
#303 = ORIENTED_EDGE ( 'NONE', *, *, #127, .T. ) ;
#304 = EDGE_CURVE ( 'NONE', #90, #258, #234, .T. ) ;
#305 = MECHANICAL_CONTEXT ( 'NONE', #262, 'mechanical' ) ;
#306 = APPROVAL ( #302, 'NEURÈENÝ' ) ;
#307 = EDGE_LOOP ( 'NONE', ( #300, #225 ) ) ;
ENDSEC;
END-ISO-10303-21;
