ISO-10303-21;
HEADER;
FILE_DESCRIPTION (( 'STEP AP203' ),
    '1' );
FILE_NAME ('db5c.STEP',
    '2023-02-12T11:30:21',
    ( '' ),
    ( '' ),
    'SwSTEP 2.0',
    'SolidWorks 2019',
    '' );
FILE_SCHEMA (( 'CONFIG_CONTROL_DESIGN' ));
ENDSEC;

DATA;
#1 = AXIS2_PLACEMENT_3D ( 'NONE', #114, #92, #245 ) ;
#2 = PERSON_AND_ORGANIZATION ( #215, #222 ) ;
#3 = VERTEX_POINT ( 'NONE', #250 ) ;
#4 = CARTESIAN_POINT ( 'NONE',  ( 3.250000000000000444, 3.980102097228898231E-16, 500.0000000000000000 ) ) ;
#5 = DATE_TIME_ROLE ( 'classification_date' ) ;
#6 = PRODUCT ( 'db5c', 'db5c', '', ( #39 ) ) ;
#7 = AXIS2_PLACEMENT_3D ( 'NONE', #203, #8, #23 ) ;
#8 = DIRECTION ( 'NONE',  ( 0.000000000000000000, 0.000000000000000000, 1.000000000000000000 ) ) ;
#9 = LINE ( 'NONE', #111, #151 ) ;
#10 = CARTESIAN_POINT ( 'NONE',  ( 0.000000000000000000, 0.000000000000000000, 5.000000000000000000 ) ) ;
#11 = EDGE_CURVE ( 'NONE', #252, #83, #40, .T. ) ;
#12 = AXIS2_PLACEMENT_3D ( 'NONE', #160, #105, #165 ) ;
#13 = EDGE_CURVE ( 'NONE', #65, #57, #187, .T. ) ;
#14 = APPROVAL_ROLE ( '' ) ;
#15 = CALENDAR_DATE ( 2023, 12, 2 ) ;
#16 = ORIENTED_EDGE ( 'NONE', *, *, #11, .T. ) ;
#17 = APPLICATION_CONTEXT ( 'configuration controlled 3d designs of mechanical parts and assemblies' ) ;
#18 = CC_DESIGN_APPROVAL ( #31, ( #135 ) ) ;
#19 = COORDINATED_UNIVERSAL_TIME_OFFSET ( 1, 0, .AHEAD. ) ;
#20 = DIRECTION ( 'NONE',  ( 0.000000000000000000, 0.000000000000000000, 1.000000000000000000 ) ) ;
#21 = DIRECTION ( 'NONE',  ( 1.000000000000000000, 0.000000000000000000, -0.000000000000000000 ) ) ;
#22 = DIRECTION ( 'NONE',  ( 0.000000000000000000, 0.000000000000000000, 1.000000000000000000 ) ) ;
#23 = DIRECTION ( 'NONE',  ( 1.000000000000000000, 0.000000000000000000, 0.000000000000000000 ) ) ;
#24 = CARTESIAN_POINT ( 'NONE',  ( 0.000000000000000000, 0.000000000000000000, 500.0000000000000000 ) ) ;
#25 = PLANE ( 'NONE',  #47 ) ;
#26 = EDGE_LOOP ( 'NONE', ( #179, #154 ) ) ;
#27 = AXIS2_PLACEMENT_3D ( 'NONE', #224, #206, #205 ) ;
#28 = CC_DESIGN_SECURITY_CLASSIFICATION ( #135, ( #232 ) ) ;
#29 = CALENDAR_DATE ( 2023, 12, 2 ) ;
#30 = DIRECTION ( 'NONE',  ( -1.000000000000000000, 0.000000000000000000, 0.000000000000000000 ) ) ;
#31 = APPROVAL ( #176, 'NEURÈENÝ' ) ;
#32 = ORIENTED_EDGE ( 'NONE', *, *, #37, .T. ) ;
#33 = SHAPE_DEFINITION_REPRESENTATION ( #68, #182 ) ;
#34 = PLANE ( 'NONE',  #212 ) ;
#35 = VECTOR ( 'NONE', #251, 1000.000000000000000 ) ;
#36 = DATE_AND_TIME ( #125, #48 ) ;
#37 = EDGE_CURVE ( 'NONE', #83, #252, #118, .T. ) ;
#38 = APPROVAL_ROLE ( '' ) ;
#39 = MECHANICAL_CONTEXT ( 'NONE', #17, 'mechanical' ) ;
#40 = CIRCLE ( 'NONE', #170, 6.000000000000000888 ) ;
#41 = APPROVAL ( #130, 'NEURÈENÝ' ) ;
#42 = CC_DESIGN_PERSON_AND_ORGANIZATION_ASSIGNMENT ( #2, #195, ( #149 ) ) ;
#43 = UNCERTAINTY_MEASURE_WITH_UNIT (LENGTH_MEASURE( 1.000000000000000082E-05 ), #229, 'distance_accuracy_value', 'NONE');
#44 = CARTESIAN_POINT ( 'NONE',  ( -3.250000000000000444, 0.000000000000000000, 500.0000000000000000 ) ) ;
#45 = CARTESIAN_POINT ( 'NONE',  ( -3.250000000000000444, 0.000000000000000000, 500.0000000000000000 ) ) ;
#46 = DIRECTION ( 'NONE',  ( 0.000000000000000000, 0.000000000000000000, 1.000000000000000000 ) ) ;
#47 = AXIS2_PLACEMENT_3D ( 'NONE', #86, #134, #162 ) ;
#48 = LOCAL_TIME ( 12, 30, 21.00000000000000000, #216 ) ;
#49 = ORIENTED_EDGE ( 'NONE', *, *, #13, .T. ) ;
#50 = ORIENTED_EDGE ( 'NONE', *, *, #180, .F. ) ;
#51 = CC_DESIGN_APPROVAL ( #71, ( #232 ) ) ;
#52 = DATE_AND_TIME ( #127, #96 ) ;
#53 = ORIENTED_EDGE ( 'NONE', *, *, #180, .T. ) ;
#54 = PERSON_AND_ORGANIZATION ( #215, #222 ) ;
#55 = ORIENTED_EDGE ( 'NONE', *, *, #139, .F. ) ;
#56 = CLOSED_SHELL ( 'NONE', ( #249, #201, #94, #152, #79, #58, #189 ) ) ;
#57 = VERTEX_POINT ( 'NONE', #45 ) ;
#58 = ADVANCED_FACE ( 'NONE', ( #166 ), #132, .T. ) ;
#59 = DIRECTION ( 'NONE',  ( 1.000000000000000000, 0.000000000000000000, 0.000000000000000000 ) ) ;
#60 = EDGE_LOOP ( 'NONE', ( #93, #49 ) ) ;
#61 = PERSON_AND_ORGANIZATION ( #215, #222 ) ;
#62 = CARTESIAN_POINT ( 'NONE',  ( 0.000000000000000000, 0.000000000000000000, 500.0000000000000000 ) ) ;
#63 = EDGE_CURVE ( 'NONE', #3, #100, #183, .T. ) ;
#64 = VECTOR ( 'NONE', #131, 1000.000000000000000 ) ;
#65 = VERTEX_POINT ( 'NONE', #91 ) ;
#66 = FACE_OUTER_BOUND ( 'NONE', #175, .T. ) ;
#67 = DIRECTION ( 'NONE',  ( -1.000000000000000000, 0.000000000000000000, 0.000000000000000000 ) ) ;
#68 = PRODUCT_DEFINITION_SHAPE ( 'NONE', 'NONE',  #149 ) ;
#69 = AXIS2_PLACEMENT_3D ( 'NONE', #144, #200, #21 ) ;
#70 = DIRECTION ( 'NONE',  ( 0.000000000000000000, 0.000000000000000000, 1.000000000000000000 ) ) ;
#71 = APPROVAL ( #106, 'NEURÈENÝ' ) ;
#72 = CARTESIAN_POINT ( 'NONE',  ( 6.000000000000000888, 7.347880794884120722E-16, 5.000000000000000000 ) ) ;
#73 = AXIS2_PLACEMENT_3D ( 'NONE', #62, #163, #59 ) ;
#74 = ORIENTED_EDGE ( 'NONE', *, *, #171, .F. ) ;
#75 = AXIS2_PLACEMENT_3D ( 'NONE', #24, #46, #186 ) ;
#76 = AXIS2_PLACEMENT_3D ( 'NONE', #196, #22, #218 ) ;
#77 = ORIENTED_EDGE ( 'NONE', *, *, #11, .F. ) ;
#78 = PERSON_AND_ORGANIZATION ( #215, #222 ) ;
#79 = ADVANCED_FACE ( 'NONE', ( #113 ), #25, .F. ) ;
#80 = CIRCLE ( 'NONE', #73, 3.250000000000000444 ) ;
#81 = CARTESIAN_POINT ( 'NONE',  ( -6.000000000000000888, 0.000000000000000000, 5.000000000000000000 ) ) ;
#82 = PERSON_AND_ORGANIZATION_ROLE ( 'classification_officer' ) ;
#83 = VERTEX_POINT ( 'NONE', #246 ) ;
#84 = FACE_OUTER_BOUND ( 'NONE', #26, .T. ) ;
#85 = LOCAL_TIME ( 12, 30, 21.00000000000000000, #194 ) ;
#86 = CARTESIAN_POINT ( 'NONE',  ( 0.000000000000000000, 0.000000000000000000, 0.000000000000000000 ) ) ;
#87 = EDGE_CURVE ( 'NONE', #100, #3, #145, .T. ) ;
#88 = CYLINDRICAL_SURFACE ( 'NONE', #191, 6.000000000000000888 ) ;
#89 = PLANE ( 'NONE',  #69 ) ;
#90 = CIRCLE ( 'NONE', #161, 6.000000000000000888 ) ;
#91 = CARTESIAN_POINT ( 'NONE',  ( 3.250000000000000444, 3.980102097228898231E-16, 500.0000000000000000 ) ) ;
#92 = DIRECTION ( 'NONE',  ( 0.000000000000000000, 0.000000000000000000, 1.000000000000000000 ) ) ;
#93 = ORIENTED_EDGE ( 'NONE', *, *, #108, .T. ) ;
#94 = ADVANCED_FACE ( 'NONE', ( #66 ), #88, .T. ) ;
#95 = CC_DESIGN_PERSON_AND_ORGANIZATION_ASSIGNMENT ( #128, #107, ( #6 ) ) ;
#96 = LOCAL_TIME ( 12, 30, 21.00000000000000000, #192 ) ;
#97 = PERSON_AND_ORGANIZATION ( #215, #222 ) ;
#98 = CARTESIAN_POINT ( 'NONE',  ( 0.000000000000000000, 0.000000000000000000, 500.0000000000000000 ) ) ;
#99 = DATE_TIME_ROLE ( 'creation_date' ) ;
#100 = VERTEX_POINT ( 'NONE', #147 ) ;
#101 = CARTESIAN_POINT ( 'NONE',  ( 0.000000000000000000, 0.000000000000000000, 5.000000000000000000 ) ) ;
#102 = PERSON_AND_ORGANIZATION_ROLE ( 'design_supplier' ) ;
#103 = EDGE_LOOP ( 'NONE', ( #214, #77 ) ) ;
#104 = PERSON_AND_ORGANIZATION ( #215, #222 ) ;
#105 = DIRECTION ( 'NONE',  ( 0.000000000000000000, 0.000000000000000000, 1.000000000000000000 ) ) ;
#106 = APPROVAL_STATUS ( 'not_yet_approved' ) ;
#107 = PERSON_AND_ORGANIZATION_ROLE ( 'design_owner' ) ;
#108 = EDGE_CURVE ( 'NONE', #57, #65, #80, .T. ) ;
#109 = AXIS2_PLACEMENT_3D ( 'NONE', #101, #153, #120 ) ;
#110 = VECTOR ( 'NONE', #253, 1000.000000000000000 ) ;
#111 = CARTESIAN_POINT ( 'NONE',  ( 6.000000000000000888, 7.347880794884120722E-16, 5.000000000000000000 ) ) ;
#112 = DIRECTION ( 'NONE',  ( 1.000000000000000000, 0.000000000000000000, 0.000000000000000000 ) ) ;
#113 = FACE_OUTER_BOUND ( 'NONE', #103, .T. ) ;
#114 = CARTESIAN_POINT ( 'NONE',  ( 0.000000000000000000, 0.000000000000000000, 0.000000000000000000 ) ) ;
#115 = PRODUCT_RELATED_PRODUCT_CATEGORY ( 'detail', '', ( #6 ) ) ;
#116 = DIRECTION ( 'NONE',  ( 1.000000000000000000, 0.000000000000000000, 0.000000000000000000 ) ) ;
#117 = CARTESIAN_POINT ( 'NONE',  ( 0.000000000000000000, 0.000000000000000000, 0.000000000000000000 ) ) ;
#118 = CIRCLE ( 'NONE', #1, 6.000000000000000888 ) ;
#119 = APPROVAL_PERSON_ORGANIZATION ( #61, #41, #155 ) ;
#120 = DIRECTION ( 'NONE',  ( -1.000000000000000000, 0.000000000000000000, 0.000000000000000000 ) ) ;
#121 = CARTESIAN_POINT ( 'NONE',  ( 6.000000000000000888, 7.347880794884120722E-16, 0.000000000000000000 ) ) ;
#122 = VERTEX_POINT ( 'NONE', #81 ) ;
#123 = APPROVAL_DATE_TIME ( #150, #41 ) ;
#124 = DIRECTION ( 'NONE',  ( -0.000000000000000000, -0.000000000000000000, -1.000000000000000000 ) ) ;
#125 = CALENDAR_DATE ( 2023, 12, 2 ) ;
#126 = CALENDAR_DATE ( 2023, 12, 2 ) ;
#127 = CALENDAR_DATE ( 2023, 12, 2 ) ;
#128 = PERSON_AND_ORGANIZATION ( #215, #222 ) ;
#129 = CARTESIAN_POINT ( 'NONE',  ( -6.000000000000000888, 0.000000000000000000, 5.000000000000000000 ) ) ;
#130 = APPROVAL_STATUS ( 'not_yet_approved' ) ;
#131 = DIRECTION ( 'NONE',  ( -0.000000000000000000, -0.000000000000000000, -1.000000000000000000 ) ) ;
#132 = CYLINDRICAL_SURFACE ( 'NONE', #27, 3.250000000000000444 ) ;
#133 = CC_DESIGN_DATE_AND_TIME_ASSIGNMENT ( #230, #5, ( #135 ) ) ;
#134 = DIRECTION ( 'NONE',  ( 0.000000000000000000, 0.000000000000000000, 1.000000000000000000 ) ) ;
#135 = SECURITY_CLASSIFICATION ( '', '', #213 ) ;
#136 = CARTESIAN_POINT ( 'NONE',  ( 0.000000000000000000, 0.000000000000000000, 500.0000000000000000 ) ) ;
#137 = FACE_OUTER_BOUND ( 'NONE', #223, .T. ) ;
#138 = AXIS2_PLACEMENT_3D ( 'NONE', #136, #124, #30 ) ;
#139 = EDGE_CURVE ( 'NONE', #122, #83, #146, .T. ) ;
#140 = ORIENTED_EDGE ( 'NONE', *, *, #197, .T. ) ;
#141 = EDGE_CURVE ( 'NONE', #122, #237, #90, .T. ) ;
#142 = ORIENTED_EDGE ( 'NONE', *, *, #141, .F. ) ;
#143 = DATE_AND_TIME ( #126, #202 ) ;
#144 = CARTESIAN_POINT ( 'NONE',  ( 0.000000000000000000, 0.000000000000000000, 5.000000000000000000 ) ) ;
#145 = CIRCLE ( 'NONE', #174, 3.250000000000000444 ) ;
#146 = LINE ( 'NONE', #129, #64 ) ;
#147 = CARTESIAN_POINT ( 'NONE',  ( -3.250000000000000444, 0.000000000000000000, 5.000000000000000000 ) ) ;
#148 = LOCAL_TIME ( 12, 30, 21.00000000000000000, #185 ) ;
#149 = PRODUCT_DEFINITION ( 'NEZNÁMÝ', '', #232, #242 ) ;
#150 = DATE_AND_TIME ( #29, #148 ) ;
#151 = VECTOR ( 'NONE', #244, 1000.000000000000000 ) ;
#152 = ADVANCED_FACE ( 'NONE', ( #178, #84 ), #89, .T. ) ;
#153 = DIRECTION ( 'NONE',  ( -0.000000000000000000, -0.000000000000000000, -1.000000000000000000 ) ) ;
#154 = ORIENTED_EDGE ( 'NONE', *, *, #171, .T. ) ;
#155 = APPROVAL_ROLE ( '' ) ;
#156 = ORIENTED_EDGE ( 'NONE', *, *, #87, .T. ) ;
#157 = ORIENTED_EDGE ( 'NONE', *, *, #87, .F. ) ;
#158 =( GEOMETRIC_REPRESENTATION_CONTEXT ( 3 ) GLOBAL_UNCERTAINTY_ASSIGNED_CONTEXT ( ( #43 ) ) GLOBAL_UNIT_ASSIGNED_CONTEXT ( ( #229, #172, #173 ) ) REPRESENTATION_CONTEXT ( 'NONE', 'WORKASPACE' ) );
#159 = EDGE_LOOP ( 'NONE', ( #248, #221, #238, #156 ) ) ;
#160 = CARTESIAN_POINT ( 'NONE',  ( 0.000000000000000000, 0.000000000000000000, 5.000000000000000000 ) ) ;
#161 = AXIS2_PLACEMENT_3D ( 'NONE', #199, #20, #184 ) ;
#162 = DIRECTION ( 'NONE',  ( 1.000000000000000000, 0.000000000000000000, -0.000000000000000000 ) ) ;
#163 = DIRECTION ( 'NONE',  ( 0.000000000000000000, 0.000000000000000000, 1.000000000000000000 ) ) ;
#164 = APPROVAL_PERSON_ORGANIZATION ( #104, #31, #38 ) ;
#165 = DIRECTION ( 'NONE',  ( 1.000000000000000000, 0.000000000000000000, 0.000000000000000000 ) ) ;
#166 = FACE_OUTER_BOUND ( 'NONE', #159, .T. ) ;
#167 = ORIENTED_EDGE ( 'NONE', *, *, #139, .T. ) ;
#168 = ORIENTED_EDGE ( 'NONE', *, *, #13, .F. ) ;
#169 = DIRECTION ( 'NONE',  ( 1.000000000000000000, 0.000000000000000000, -0.000000000000000000 ) ) ;
#170 = AXIS2_PLACEMENT_3D ( 'NONE', #117, #70, #112 ) ;
#171 = EDGE_CURVE ( 'NONE', #237, #122, #225, .T. ) ;
#172 =( NAMED_UNIT ( * ) PLANE_ANGLE_UNIT ( ) SI_UNIT ( $, .RADIAN. ) );
#173 =( NAMED_UNIT ( * ) SI_UNIT ( $, .STERADIAN. ) SOLID_ANGLE_UNIT ( ) );
#174 = AXIS2_PLACEMENT_3D ( 'NONE', #204, #240, #116 ) ;
#175 = EDGE_LOOP ( 'NONE', ( #50, #142, #167, #32 ) ) ;
#176 = APPROVAL_STATUS ( 'not_yet_approved' ) ;
#177 = PERSON_AND_ORGANIZATION ( #215, #222 ) ;
#178 = FACE_BOUND ( 'NONE', #254, .T. ) ;
#179 = ORIENTED_EDGE ( 'NONE', *, *, #141, .T. ) ;
#180 = EDGE_CURVE ( 'NONE', #237, #252, #9, .T. ) ;
#181 = EDGE_CURVE ( 'NONE', #57, #100, #247, .T. ) ;
#182 = ADVANCED_BREP_SHAPE_REPRESENTATION ( 'db5c', ( #219, #76 ), #158 ) ;
#183 = CIRCLE ( 'NONE', #12, 3.250000000000000444 ) ;
#184 = DIRECTION ( 'NONE',  ( 1.000000000000000000, 0.000000000000000000, 0.000000000000000000 ) ) ;
#185 = COORDINATED_UNIVERSAL_TIME_OFFSET ( 1, 0, .AHEAD. ) ;
#186 = DIRECTION ( 'NONE',  ( 1.000000000000000000, 0.000000000000000000, 0.000000000000000000 ) ) ;
#187 = CIRCLE ( 'NONE', #75, 3.250000000000000444 ) ;
#188 = EDGE_LOOP ( 'NONE', ( #74, #53, #16, #55 ) ) ;
#189 = ADVANCED_FACE ( 'NONE', ( #227 ), #34, .T. ) ;
#190 = CC_DESIGN_PERSON_AND_ORGANIZATION_ASSIGNMENT ( #78, #82, ( #135 ) ) ;
#191 = AXIS2_PLACEMENT_3D ( 'NONE', #10, #243, #67 ) ;
#192 = COORDINATED_UNIVERSAL_TIME_OFFSET ( 1, 0, .AHEAD. ) ;
#193 = LINE ( 'NONE', #4, #110 ) ;
#194 = COORDINATED_UNIVERSAL_TIME_OFFSET ( 1, 0, .AHEAD. ) ;
#195 = PERSON_AND_ORGANIZATION_ROLE ( 'creator' ) ;
#196 = CARTESIAN_POINT ( 'NONE',  ( 0.000000000000000000, 0.000000000000000000, 0.000000000000000000 ) ) ;
#197 = EDGE_CURVE ( 'NONE', #65, #3, #193, .T. ) ;
#198 = APPROVAL_DATE_TIME ( #143, #31 ) ;
#199 = CARTESIAN_POINT ( 'NONE',  ( 0.000000000000000000, 0.000000000000000000, 5.000000000000000000 ) ) ;
#200 = DIRECTION ( 'NONE',  ( 0.000000000000000000, 0.000000000000000000, 1.000000000000000000 ) ) ;
#201 = ADVANCED_FACE ( 'NONE', ( #233 ), #210, .T. ) ;
#202 = LOCAL_TIME ( 12, 30, 21.00000000000000000, #19 ) ;
#203 = CARTESIAN_POINT ( 'NONE',  ( 0.000000000000000000, 0.000000000000000000, 5.000000000000000000 ) ) ;
#204 = CARTESIAN_POINT ( 'NONE',  ( 0.000000000000000000, 0.000000000000000000, 5.000000000000000000 ) ) ;
#205 = DIRECTION ( 'NONE',  ( -1.000000000000000000, 0.000000000000000000, 0.000000000000000000 ) ) ;
#206 = DIRECTION ( 'NONE',  ( -0.000000000000000000, -0.000000000000000000, -1.000000000000000000 ) ) ;
#207 = CC_DESIGN_APPROVAL ( #41, ( #149 ) ) ;
#208 = ORIENTED_EDGE ( 'NONE', *, *, #181, .F. ) ;
#209 = CC_DESIGN_PERSON_AND_ORGANIZATION_ASSIGNMENT ( #97, #102, ( #232 ) ) ;
#210 = CYLINDRICAL_SURFACE ( 'NONE', #109, 6.000000000000000888 ) ;
#211 = PERSON_AND_ORGANIZATION_ROLE ( 'creator' ) ;
#212 = AXIS2_PLACEMENT_3D ( 'NONE', #98, #255, #169 ) ;
#213 = SECURITY_CLASSIFICATION_LEVEL ( 'unclassified' ) ;
#214 = ORIENTED_EDGE ( 'NONE', *, *, #37, .F. ) ;
#215 = PERSON ( 'NEURÈENÝ', 'NEURÈENÝ', 'NEURÈENÝ', ('NEURÈENÝ'), ('NEURÈENÝ'), ('NEURÈENÝ') ) ;
#216 = COORDINATED_UNIVERSAL_TIME_OFFSET ( 1, 0, .AHEAD. ) ;
#217 = APPROVAL_PERSON_ORGANIZATION ( #54, #71, #14 ) ;
#218 = DIRECTION ( 'NONE',  ( 1.000000000000000000, 0.000000000000000000, 0.000000000000000000 ) ) ;
#219 = MANIFOLD_SOLID_BREP ( 'Pøidat vysunutím3', #56 ) ;
#220 = ORIENTED_EDGE ( 'NONE', *, *, #63, .F. ) ;
#221 = ORIENTED_EDGE ( 'NONE', *, *, #108, .F. ) ;
#222 = ORGANIZATION ( 'NEURÈENÝ', 'NEURÈENÝ', '' ) ;
#223 = EDGE_LOOP ( 'NONE', ( #168, #140, #234, #208 ) ) ;
#224 = CARTESIAN_POINT ( 'NONE',  ( 0.000000000000000000, 0.000000000000000000, 500.0000000000000000 ) ) ;
#225 = CIRCLE ( 'NONE', #7, 6.000000000000000888 ) ;
#226 = CC_DESIGN_DATE_AND_TIME_ASSIGNMENT ( #36, #99, ( #149 ) ) ;
#227 = FACE_OUTER_BOUND ( 'NONE', #60, .T. ) ;
#228 = CYLINDRICAL_SURFACE ( 'NONE', #138, 3.250000000000000444 ) ;
#229 =( LENGTH_UNIT ( ) NAMED_UNIT ( * ) SI_UNIT ( .MILLI., .METRE. ) );
#230 = DATE_AND_TIME ( #15, #85 ) ;
#231 = APPLICATION_CONTEXT ( 'configuration controlled 3d designs of mechanical parts and assemblies' ) ;
#232 = PRODUCT_DEFINITION_FORMATION_WITH_SPECIFIED_SOURCE ( 'LIBOVOLNÝ', '', #6, .NOT_KNOWN. ) ;
#233 = FACE_OUTER_BOUND ( 'NONE', #188, .T. ) ;
#234 = ORIENTED_EDGE ( 'NONE', *, *, #63, .T. ) ;
#235 = CC_DESIGN_PERSON_AND_ORGANIZATION_ASSIGNMENT ( #177, #211, ( #232 ) ) ;
#236 = APPROVAL_DATE_TIME ( #52, #71 ) ;
#237 = VERTEX_POINT ( 'NONE', #72 ) ;
#238 = ORIENTED_EDGE ( 'NONE', *, *, #181, .T. ) ;
#239 = APPLICATION_PROTOCOL_DEFINITION ( 'international standard', 'config_control_design', 1994, #231 ) ;
#240 = DIRECTION ( 'NONE',  ( 0.000000000000000000, 0.000000000000000000, 1.000000000000000000 ) ) ;
#241 = APPLICATION_PROTOCOL_DEFINITION ( 'international standard', 'config_control_design', 1994, #17 ) ;
#242 = DESIGN_CONTEXT ( 'detailed design', #231, 'design' ) ;
#243 = DIRECTION ( 'NONE',  ( -0.000000000000000000, -0.000000000000000000, -1.000000000000000000 ) ) ;
#244 = DIRECTION ( 'NONE',  ( -0.000000000000000000, -0.000000000000000000, -1.000000000000000000 ) ) ;
#245 = DIRECTION ( 'NONE',  ( 1.000000000000000000, 0.000000000000000000, 0.000000000000000000 ) ) ;
#246 = CARTESIAN_POINT ( 'NONE',  ( -6.000000000000000888, 0.000000000000000000, 0.000000000000000000 ) ) ;
#247 = LINE ( 'NONE', #44, #35 ) ;
#248 = ORIENTED_EDGE ( 'NONE', *, *, #197, .F. ) ;
#249 = ADVANCED_FACE ( 'NONE', ( #137 ), #228, .T. ) ;
#250 = CARTESIAN_POINT ( 'NONE',  ( 3.250000000000000444, 3.980102097228898231E-16, 5.000000000000000000 ) ) ;
#251 = DIRECTION ( 'NONE',  ( -0.000000000000000000, -0.000000000000000000, -1.000000000000000000 ) ) ;
#252 = VERTEX_POINT ( 'NONE', #121 ) ;
#253 = DIRECTION ( 'NONE',  ( -0.000000000000000000, -0.000000000000000000, -1.000000000000000000 ) ) ;
#254 = EDGE_LOOP ( 'NONE', ( #157, #220 ) ) ;
#255 = DIRECTION ( 'NONE',  ( 0.000000000000000000, 0.000000000000000000, 1.000000000000000000 ) ) ;
ENDSEC;
END-ISO-10303-21;
