ISO-10303-21;
HEADER;
FILE_DESCRIPTION (( 'STEP AP203' ),
    '1' );
FILE_NAME ('09a2.STEP',
    '2022-07-07T12:37:32',
    ( '' ),
    ( '' ),
    'SwSTEP 2.0',
    'SolidWorks 2019',
    '' );
FILE_SCHEMA (( 'CONFIG_CONTROL_DESIGN' ));
ENDSEC;

DATA;
#1 = PERSON_AND_ORGANIZATION_ROLE ( 'design_supplier' ) ;
#2 = APPROVAL_DATE_TIME ( #173, #222 ) ;
#3 = AXIS2_PLACEMENT_3D ( 'NONE', #250, #198, #269 ) ;
#4 = MECHANICAL_CONTEXT ( 'NONE', #165, 'mechanical' ) ;
#5 = ORIENTED_EDGE ( 'NONE', *, *, #114, .F. ) ;
#6 = ORIENTED_EDGE ( 'NONE', *, *, #63, .F. ) ;
#7 = FACE_OUTER_BOUND ( 'NONE', #201, .T. ) ;
#8 = EDGE_LOOP ( 'NONE', ( #129, #290, #127, #178 ) ) ;
#9 = VERTEX_POINT ( 'NONE', #11 ) ;
#10 = ORIENTED_EDGE ( 'NONE', *, *, #28, .F. ) ;
#11 = CARTESIAN_POINT ( 'NONE',  ( -6.000000000000000888, 0.000000000000000000, 0.000000000000000000 ) ) ;
#12 = DIRECTION ( 'NONE',  ( -0.000000000000000000, -0.000000000000000000, -1.000000000000000000 ) ) ;
#13 = EDGE_LOOP ( 'NONE', ( #59, #119 ) ) ;
#14 = ORIENTED_EDGE ( 'NONE', *, *, #259, .T. ) ;
#15 = DIRECTION ( 'NONE',  ( 1.000000000000000000, 0.000000000000000000, 0.000000000000000000 ) ) ;
#16 = CYLINDRICAL_SURFACE ( 'NONE', #302, 3.500000000000000000 ) ;
#17 = AXIS2_PLACEMENT_3D ( 'NONE', #98, #177, #83 ) ;
#18 = DIRECTION ( 'NONE',  ( -1.000000000000000000, 0.000000000000000000, 0.000000000000000000 ) ) ;
#19 = VECTOR ( 'NONE', #163, 1000.000000000000000 ) ;
#20 = DIRECTION ( 'NONE',  ( 0.000000000000000000, 0.000000000000000000, 1.000000000000000000 ) ) ;
#21 = ADVANCED_FACE ( 'NONE', ( #155 ), #81, .T. ) ;
#22 = CIRCLE ( 'NONE', #200, 3.500000000000000000 ) ;
#23 = PERSON_AND_ORGANIZATION ( #145, #107 ) ;
#24 = ADVANCED_FACE ( 'NONE', ( #85 ), #266, .F. ) ;
#25 = COORDINATED_UNIVERSAL_TIME_OFFSET ( 1, 0, .AHEAD. ) ;
#26 = APPROVAL_STATUS ( 'not_yet_approved' ) ;
#27 = APPROVAL_ROLE ( '' ) ;
#28 = EDGE_CURVE ( 'NONE', #268, #29, #62, .T. ) ;
#29 = VERTEX_POINT ( 'NONE', #158 ) ;
#30 = DIRECTION ( 'NONE',  ( -0.000000000000000000, -0.000000000000000000, -1.000000000000000000 ) ) ;
#31 = ORIENTED_EDGE ( 'NONE', *, *, #241, .F. ) ;
#32 = CYLINDRICAL_SURFACE ( 'NONE', #180, 3.500000000000000000 ) ;
#33 = CIRCLE ( 'NONE', #3, 6.000000000000000888 ) ;
#34 = APPROVAL_PERSON_ORGANIZATION ( #261, #222, #306 ) ;
#35 = ORIENTED_EDGE ( 'NONE', *, *, #299, .T. ) ;
#36 = ORIENTED_EDGE ( 'NONE', *, *, #128, .T. ) ;
#37 = ORIENTED_EDGE ( 'NONE', *, *, #114, .T. ) ;
#38 = DIRECTION ( 'NONE',  ( -1.000000000000000000, 1.224646799147350742E-16, 0.000000000000000000 ) ) ;
#39 = CIRCLE ( 'NONE', #190, 3.500000000000000000 ) ;
#40 = CARTESIAN_POINT ( 'NONE',  ( 0.000000000000000000, 0.000000000000000000, 205.0000000000000284 ) ) ;
#41 = PRODUCT_RELATED_PRODUCT_CATEGORY ( 'detail', '', ( #137 ) ) ;
#42 = CARTESIAN_POINT ( 'NONE',  ( 0.000000000000000000, 0.000000000000000000, 5.000000000000000000 ) ) ;
#43 = DIRECTION ( 'NONE',  ( 0.000000000000000000, 0.000000000000000000, 1.000000000000000000 ) ) ;
#44 = LOCAL_TIME ( 14, 37, 32.00000000000000000, #148 ) ;
#45 = DIRECTION ( 'NONE',  ( -0.000000000000000000, -0.000000000000000000, -1.000000000000000000 ) ) ;
#46 = PERSON_AND_ORGANIZATION ( #145, #107 ) ;
#47 = APPROVAL_DATE_TIME ( #170, #283 ) ;
#48 = EDGE_CURVE ( 'NONE', #199, #9, #161, .T. ) ;
#49 = CALENDAR_DATE ( 2022, 7, 7 ) ;
#50 = CIRCLE ( 'NONE', #287, 6.000000000000000888 ) ;
#51 = SHAPE_DEFINITION_REPRESENTATION ( #304, #267 ) ;
#52 = DATE_TIME_ROLE ( 'classification_date' ) ;
#53 = ORIENTED_EDGE ( 'NONE', *, *, #79, .F. ) ;
#54 = ORIENTED_EDGE ( 'NONE', *, *, #259, .F. ) ;
#55 = CARTESIAN_POINT ( 'NONE',  ( -6.000000000000000888, 0.000000000000000000, 5.000000000000000000 ) ) ;
#56 = ORIENTED_EDGE ( 'NONE', *, *, #175, .T. ) ;
#57 = CARTESIAN_POINT ( 'NONE',  ( 0.000000000000000000, 0.000000000000000000, 205.0000000000000284 ) ) ;
#58 = CIRCLE ( 'NONE', #233, 0.1999999999999996503 ) ;
#59 = ORIENTED_EDGE ( 'NONE', *, *, #142, .T. ) ;
#60 = DIRECTION ( 'NONE',  ( 0.000000000000000000, 0.000000000000000000, 1.000000000000000000 ) ) ;
#61 =( GEOMETRIC_REPRESENTATION_CONTEXT ( 3 ) GLOBAL_UNCERTAINTY_ASSIGNED_CONTEXT ( ( #260 ) ) GLOBAL_UNIT_ASSIGNED_CONTEXT ( ( #113, #229, #237 ) ) REPRESENTATION_CONTEXT ( 'NONE', 'WORKASPACE' ) );
#62 = LINE ( 'NONE', #152, #124 ) ;
#63 = EDGE_CURVE ( 'NONE', #9, #289, #33, .T. ) ;
#64 = DIRECTION ( 'NONE',  ( 1.000000000000000000, 0.000000000000000000, 0.000000000000000000 ) ) ;
#65 = CIRCLE ( 'NONE', #239, 3.500000000000000000 ) ;
#66 = DIRECTION ( 'NONE',  ( 0.000000000000000000, 0.000000000000000000, 1.000000000000000000 ) ) ;
#67 = FACE_OUTER_BOUND ( 'NONE', #220, .T. ) ;
#68 = LINE ( 'NONE', #162, #19 ) ;
#69 = PERSON_AND_ORGANIZATION ( #145, #107 ) ;
#70 = PERSON_AND_ORGANIZATION ( #145, #107 ) ;
#71 = PERSON_AND_ORGANIZATION_ROLE ( 'design_owner' ) ;
#72 = AXIS2_PLACEMENT_3D ( 'NONE', #106, #294, #291 ) ;
#73 = DATE_AND_TIME ( #116, #257 ) ;
#74 = CIRCLE ( 'NONE', #247, 0.2000000000000000944 ) ;
#75 = EDGE_CURVE ( 'NONE', #156, #274, #208, .T. ) ;
#76 = DIRECTION ( 'NONE',  ( -0.000000000000000000, -0.000000000000000000, -1.000000000000000000 ) ) ;
#77 = CC_DESIGN_APPROVAL ( #93, ( #126 ) ) ;
#78 = VERTEX_POINT ( 'NONE', #226 ) ;
#79 = EDGE_CURVE ( 'NONE', #78, #274, #58, .T. ) ;
#80 = VERTEX_POINT ( 'NONE', #204 ) ;
#81 = CYLINDRICAL_SURFACE ( 'NONE', #143, 6.000000000000000888 ) ;
#82 = EDGE_LOOP ( 'NONE', ( #54, #246, #225, #125 ) ) ;
#83 = DIRECTION ( 'NONE',  ( -1.000000000000000000, 0.000000000000000000, 0.000000000000000000 ) ) ;
#84 = APPROVAL_PERSON_ORGANIZATION ( #46, #93, #242 ) ;
#85 = FACE_OUTER_BOUND ( 'NONE', #203, .T. ) ;
#86 = CC_DESIGN_PERSON_AND_ORGANIZATION_ASSIGNMENT ( #169, #1, ( #140 ) ) ;
#87 = CARTESIAN_POINT ( 'NONE',  ( 0.000000000000000000, 0.000000000000000000, 205.0000000000000284 ) ) ;
#88 = CARTESIAN_POINT ( 'NONE',  ( 0.000000000000000000, 0.000000000000000000, 0.000000000000000000 ) ) ;
#89 = CARTESIAN_POINT ( 'NONE',  ( 6.000000000000000888, 7.347880794884120722E-16, 0.000000000000000000 ) ) ;
#90 = DIRECTION ( 'NONE',  ( 1.224646799147353207E-16, 1.000000000000000000, -0.000000000000000000 ) ) ;
#91 = AXIS2_PLACEMENT_3D ( 'NONE', #278, #110, #297 ) ;
#92 = DATE_TIME_ROLE ( 'creation_date' ) ;
#93 = APPROVAL ( #151, 'NEURÈENÝ' ) ;
#94 = COORDINATED_UNIVERSAL_TIME_OFFSET ( 1, 0, .AHEAD. ) ;
#95 = PERSON_AND_ORGANIZATION ( #145, #107 ) ;
#96 = LOCAL_TIME ( 14, 37, 32.00000000000000000, #171 ) ;
#97 = ORIENTED_EDGE ( 'NONE', *, *, #218, .T. ) ;
#98 = CARTESIAN_POINT ( 'NONE',  ( 0.000000000000000000, 0.000000000000000000, 5.000000000000000000 ) ) ;
#99 = AXIS2_PLACEMENT_3D ( 'NONE', #275, #105, #131 ) ;
#100 = ORIENTED_EDGE ( 'NONE', *, *, #48, .F. ) ;
#101 = ADVANCED_FACE ( 'NONE', ( #244 ), #32, .T. ) ;
#102 = DIRECTION ( 'NONE',  ( 1.000000000000000000, 0.000000000000000000, 0.000000000000000000 ) ) ;
#103 = ORIENTED_EDGE ( 'NONE', *, *, #63, .T. ) ;
#104 = CARTESIAN_POINT ( 'NONE',  ( 3.700000000000000178, 0.000000000000000000, 5.200000000000009948 ) ) ;
#105 = DIRECTION ( 'NONE',  ( 0.000000000000000000, 0.000000000000000000, 1.000000000000000000 ) ) ;
#106 = CARTESIAN_POINT ( 'NONE',  ( 0.000000000000000000, 0.000000000000000000, 5.000000000000000000 ) ) ;
#107 = ORGANIZATION ( 'NEURÈENÝ', 'NEURÈENÝ', '' ) ;
#108 = CARTESIAN_POINT ( 'NONE',  ( -3.700000000000000178, 4.531193156845206201E-16, 5.000000000000005329 ) ) ;
#109 = DIRECTION ( 'NONE',  ( 1.000000000000000000, 0.000000000000000000, 0.000000000000000000 ) ) ;
#110 = DIRECTION ( 'NONE',  ( 0.000000000000000000, 0.000000000000000000, 1.000000000000000000 ) ) ;
#111 = AXIS2_PLACEMENT_3D ( 'NONE', #212, #43, #282 ) ;
#112 = DIRECTION ( 'NONE',  ( 1.000000000000000000, 0.000000000000000000, 0.000000000000000000 ) ) ;
#113 =( LENGTH_UNIT ( ) NAMED_UNIT ( * ) SI_UNIT ( .MILLI., .METRE. ) );
#114 = EDGE_CURVE ( 'NONE', #80, #289, #221, .T. ) ;
#115 = DATE_AND_TIME ( #284, #44 ) ;
#116 = CALENDAR_DATE ( 2022, 7, 7 ) ;
#117 = PERSON_AND_ORGANIZATION_ROLE ( 'creator' ) ;
#118 = AXIS2_PLACEMENT_3D ( 'NONE', #217, #215, #144 ) ;
#119 = ORIENTED_EDGE ( 'NONE', *, *, #153, .T. ) ;
#120 = DIRECTION ( 'NONE',  ( -0.000000000000000000, -0.000000000000000000, -1.000000000000000000 ) ) ;
#121 = ORIENTED_EDGE ( 'NONE', *, *, #175, .F. ) ;
#122 = VECTOR ( 'NONE', #120, 1000.000000000000000 ) ;
#123 = DIRECTION ( 'NONE',  ( -1.000000000000000000, 0.000000000000000000, 0.000000000000000000 ) ) ;
#124 = VECTOR ( 'NONE', #76, 1000.000000000000000 ) ;
#125 = ORIENTED_EDGE ( 'NONE', *, *, #75, .F. ) ;
#126 = SECURITY_CLASSIFICATION ( '', '', #193 ) ;
#127 = ORIENTED_EDGE ( 'NONE', *, *, #28, .T. ) ;
#128 = EDGE_CURVE ( 'NONE', #199, #80, #138, .T. ) ;
#129 = ORIENTED_EDGE ( 'NONE', *, *, #218, .F. ) ;
#130 = EDGE_LOOP ( 'NONE', ( #183, #97, #196, #10 ) ) ;
#131 = DIRECTION ( 'NONE',  ( 1.000000000000000000, 0.000000000000000000, -0.000000000000000000 ) ) ;
#132 = APPROVAL_PERSON_ORGANIZATION ( #95, #283, #27 ) ;
#133 = DIRECTION ( 'NONE',  ( 0.000000000000000000, 0.000000000000000000, 1.000000000000000000 ) ) ;
#134 = MANIFOLD_SOLID_BREP ( 'Zaoblit1', #238 ) ;
#135 = ADVANCED_FACE ( 'NONE', ( #7 ), #248, .T. ) ;
#136 = FACE_OUTER_BOUND ( 'NONE', #8, .T. ) ;
#137 = PRODUCT ( '09a2', '09a2', '', ( #4 ) ) ;
#138 = CIRCLE ( 'NONE', #298, 6.000000000000000888 ) ;
#139 = DIRECTION ( 'NONE',  ( 1.000000000000000000, 0.000000000000000000, -0.000000000000000000 ) ) ;
#140 = PRODUCT_DEFINITION_FORMATION_WITH_SPECIFIED_SOURCE ( 'LIBOVOLNÝ', '', #137, .NOT_KNOWN. ) ;
#141 = FACE_BOUND ( 'NONE', #270, .T. ) ;
#142 = EDGE_CURVE ( 'NONE', #268, #223, #22, .T. ) ;
#143 = AXIS2_PLACEMENT_3D ( 'NONE', #176, #181, #154 ) ;
#144 = DIRECTION ( 'NONE',  ( 1.000000000000000000, 0.000000000000000000, 0.000000000000000000 ) ) ;
#145 = PERSON ( 'NEURÈENÝ', 'NEURÈENÝ', 'NEURÈENÝ', ('NEURÈENÝ'), ('NEURÈENÝ'), ('NEURÈENÝ') ) ;
#146 = PRODUCT_DEFINITION ( 'NEZNÁMÝ', '', #140, #280 ) ;
#147 = AXIS2_PLACEMENT_3D ( 'NONE', #189, #207, #186 ) ;
#148 = COORDINATED_UNIVERSAL_TIME_OFFSET ( 1, 0, .AHEAD. ) ;
#149 = CC_DESIGN_PERSON_AND_ORGANIZATION_ASSIGNMENT ( #258, #264, ( #126 ) ) ;
#150 = APPROVAL_STATUS ( 'not_yet_approved' ) ;
#151 = APPROVAL_STATUS ( 'not_yet_approved' ) ;
#152 = CARTESIAN_POINT ( 'NONE',  ( -3.500000000000000000, 0.000000000000000000, 205.0000000000000284 ) ) ;
#153 = EDGE_CURVE ( 'NONE', #223, #268, #65, .T. ) ;
#154 = DIRECTION ( 'NONE',  ( -1.000000000000000000, 0.000000000000000000, 0.000000000000000000 ) ) ;
#155 = FACE_OUTER_BOUND ( 'NONE', #197, .T. ) ;
#156 = VERTEX_POINT ( 'NONE', #108 ) ;
#157 = ADVANCED_FACE ( 'NONE', ( #276 ), #277, .F. ) ;
#158 = CARTESIAN_POINT ( 'NONE',  ( -3.500000000000000000, 0.000000000000000000, 5.200000000000009948 ) ) ;
#159 = AXIS2_PLACEMENT_3D ( 'NONE', #42, #281, #164 ) ;
#160 = ORIENTED_EDGE ( 'NONE', *, *, #75, .T. ) ;
#161 = LINE ( 'NONE', #55, #300 ) ;
#162 = CARTESIAN_POINT ( 'NONE',  ( 3.500000000000000000, 4.286263797015736595E-16, 205.0000000000000284 ) ) ;
#163 = DIRECTION ( 'NONE',  ( -0.000000000000000000, -0.000000000000000000, -1.000000000000000000 ) ) ;
#164 = DIRECTION ( 'NONE',  ( 1.000000000000000000, 0.000000000000000000, -0.000000000000000000 ) ) ;
#165 = APPLICATION_CONTEXT ( 'configuration controlled 3d designs of mechanical parts and assemblies' ) ;
#166 = FACE_OUTER_BOUND ( 'NONE', #13, .T. ) ;
#167 = EDGE_CURVE ( 'NONE', #29, #78, #243, .T. ) ;
#168 = CARTESIAN_POINT ( 'NONE',  ( 0.000000000000000000, 0.000000000000000000, 5.000000000000000000 ) ) ;
#169 = PERSON_AND_ORGANIZATION ( #145, #107 ) ;
#170 = DATE_AND_TIME ( #191, #182 ) ;
#171 = COORDINATED_UNIVERSAL_TIME_OFFSET ( 1, 0, .AHEAD. ) ;
#172 = AXIS2_PLACEMENT_3D ( 'NONE', #40, #236, #139 ) ;
#173 = DATE_AND_TIME ( #49, #96 ) ;
#174 = COORDINATED_UNIVERSAL_TIME_OFFSET ( 1, 0, .AHEAD. ) ;
#175 = EDGE_CURVE ( 'NONE', #289, #9, #50, .T. ) ;
#176 = CARTESIAN_POINT ( 'NONE',  ( 0.000000000000000000, 0.000000000000000000, 5.000000000000000000 ) ) ;
#177 = DIRECTION ( 'NONE',  ( -0.000000000000000000, -0.000000000000000000, -1.000000000000000000 ) ) ;
#178 = ORIENTED_EDGE ( 'NONE', *, *, #167, .T. ) ;
#179 = DIRECTION ( 'NONE',  ( 0.000000000000000000, -1.000000000000000000, 0.000000000000000000 ) ) ;
#180 = AXIS2_PLACEMENT_3D ( 'NONE', #292, #30, #123 ) ;
#181 = DIRECTION ( 'NONE',  ( -0.000000000000000000, -0.000000000000000000, -1.000000000000000000 ) ) ;
#182 = LOCAL_TIME ( 14, 37, 32.00000000000000000, #174 ) ;
#183 = ORIENTED_EDGE ( 'NONE', *, *, #153, .F. ) ;
#184 = DIRECTION ( 'NONE',  ( 1.000000000000000000, 0.000000000000000000, 0.000000000000000000 ) ) ;
#185 = DIRECTION ( 'NONE',  ( -0.000000000000000000, -0.000000000000000000, -1.000000000000000000 ) ) ;
#186 = DIRECTION ( 'NONE',  ( 1.000000000000000000, 0.000000000000000000, 0.000000000000000000 ) ) ;
#187 = ADVANCED_FACE ( 'NONE', ( #141, #301 ), #254, .T. ) ;
#188 = CARTESIAN_POINT ( 'NONE',  ( 0.000000000000000000, 0.000000000000000000, 205.0000000000000284 ) ) ;
#189 = CARTESIAN_POINT ( 'NONE',  ( 0.000000000000000000, 0.000000000000000000, 5.200000000000009948 ) ) ;
#190 = AXIS2_PLACEMENT_3D ( 'NONE', #251, #234, #64 ) ;
#191 = CALENDAR_DATE ( 2022, 7, 7 ) ;
#192 = CALENDAR_DATE ( 2022, 7, 7 ) ;
#193 = SECURITY_CLASSIFICATION_LEVEL ( 'unclassified' ) ;
#194 = CIRCLE ( 'NONE', #214, 6.000000000000000888 ) ;
#195 = APPLICATION_PROTOCOL_DEFINITION ( 'international standard', 'config_control_design', 1994, #165 ) ;
#196 = ORIENTED_EDGE ( 'NONE', *, *, #286, .T. ) ;
#197 = EDGE_LOOP ( 'NONE', ( #5, #245, #265, #103 ) ) ;
#198 = DIRECTION ( 'NONE',  ( 0.000000000000000000, 0.000000000000000000, 1.000000000000000000 ) ) ;
#199 = VERTEX_POINT ( 'NONE', #253 ) ;
#200 = AXIS2_PLACEMENT_3D ( 'NONE', #57, #20, #112 ) ;
#201 = EDGE_LOOP ( 'NONE', ( #249, #37, #56, #100 ) ) ;
#202 = DIRECTION ( 'NONE',  ( 0.000000000000000000, 0.000000000000000000, -1.000000000000000000 ) ) ;
#203 = EDGE_LOOP ( 'NONE', ( #6, #121 ) ) ;
#204 = CARTESIAN_POINT ( 'NONE',  ( 6.000000000000000888, 7.347880794884120722E-16, 5.000000000000000000 ) ) ;
#205 = CC_DESIGN_PERSON_AND_ORGANIZATION_ASSIGNMENT ( #69, #117, ( #140 ) ) ;
#206 = DIRECTION ( 'NONE',  ( 1.000000000000000000, 0.000000000000000000, 0.000000000000000000 ) ) ;
#207 = DIRECTION ( 'NONE',  ( 0.000000000000000000, 0.000000000000000000, 1.000000000000000000 ) ) ;
#208 = CIRCLE ( 'NONE', #72, 3.700000000000000178 ) ;
#209 = CARTESIAN_POINT ( 'NONE',  ( -3.700000000000000178, 4.531193156845206201E-16, 5.200000000000009948 ) ) ;
#210 = ADVANCED_FACE ( 'NONE', ( #136 ), #16, .T. ) ;
#211 = APPLICATION_CONTEXT ( 'configuration controlled 3d designs of mechanical parts and assemblies' ) ;
#212 = CARTESIAN_POINT ( 'NONE',  ( 0.000000000000000000, 0.000000000000000000, 5.200000000000009948 ) ) ;
#213 = PERSON_AND_ORGANIZATION_ROLE ( 'creator' ) ;
#214 = AXIS2_PLACEMENT_3D ( 'NONE', #256, #133, #15 ) ;
#215 = DIRECTION ( 'NONE',  ( 0.000000000000000000, 0.000000000000000000, 1.000000000000000000 ) ) ;
#216 = CC_DESIGN_DATE_AND_TIME_ASSIGNMENT ( #240, #52, ( #126 ) ) ;
#217 = CARTESIAN_POINT ( 'NONE',  ( 0.000000000000000000, 0.000000000000000000, 0.000000000000000000 ) ) ;
#218 = EDGE_CURVE ( 'NONE', #223, #78, #68, .T. ) ;
#219 = CARTESIAN_POINT ( 'NONE',  ( 0.000000000000000000, 0.000000000000000000, 5.000000000000000000 ) ) ;
#220 = EDGE_LOOP ( 'NONE', ( #224, #14, #31, #53 ) ) ;
#221 = LINE ( 'NONE', #271, #122 ) ;
#222 = APPROVAL ( #150, 'NEURÈENÝ' ) ;
#223 = VERTEX_POINT ( 'NONE', #305 ) ;
#224 = ORIENTED_EDGE ( 'NONE', *, *, #167, .F. ) ;
#225 = ORIENTED_EDGE ( 'NONE', *, *, #79, .T. ) ;
#226 = CARTESIAN_POINT ( 'NONE',  ( 3.500000000000000000, 4.286263797015736595E-16, 5.200000000000009948 ) ) ;
#227 = ADVANCED_FACE ( 'NONE', ( #67 ), #235, .F. ) ;
#228 = AXIS2_PLACEMENT_3D ( 'NONE', #168, #185, #184 ) ;
#229 =( NAMED_UNIT ( * ) PLANE_ANGLE_UNIT ( ) SI_UNIT ( $, .RADIAN. ) );
#230 = DIRECTION ( 'NONE',  ( 0.000000000000000000, 0.000000000000000000, 1.000000000000000000 ) ) ;
#231 = CC_DESIGN_PERSON_AND_ORGANIZATION_ASSIGNMENT ( #23, #213, ( #146 ) ) ;
#232 = CARTESIAN_POINT ( 'NONE',  ( -3.500000000000000000, 0.000000000000000000, 205.0000000000000284 ) ) ;
#233 = AXIS2_PLACEMENT_3D ( 'NONE', #104, #179, #202 ) ;
#234 = DIRECTION ( 'NONE',  ( 0.000000000000000000, 0.000000000000000000, 1.000000000000000000 ) ) ;
#235 = TOROIDAL_SURFACE ( 'NONE', #91, 3.700000000000000178, 0.2000000000000000111 ) ;
#236 = DIRECTION ( 'NONE',  ( 0.000000000000000000, 0.000000000000000000, 1.000000000000000000 ) ) ;
#237 =( NAMED_UNIT ( * ) SI_UNIT ( $, .STERADIAN. ) SOLID_ANGLE_UNIT ( ) );
#238 = CLOSED_SHELL ( 'NONE', ( #227, #101, #135, #21, #187, #24, #210, #293, #157 ) ) ;
#239 = AXIS2_PLACEMENT_3D ( 'NONE', #188, #230, #206 ) ;
#240 = DATE_AND_TIME ( #192, #307 ) ;
#241 = EDGE_CURVE ( 'NONE', #274, #156, #262, .T. ) ;
#242 = APPROVAL_ROLE ( '' ) ;
#243 = CIRCLE ( 'NONE', #111, 3.500000000000000000 ) ;
#244 = FACE_OUTER_BOUND ( 'NONE', #130, .T. ) ;
#245 = ORIENTED_EDGE ( 'NONE', *, *, #128, .F. ) ;
#246 = ORIENTED_EDGE ( 'NONE', *, *, #286, .F. ) ;
#247 = AXIS2_PLACEMENT_3D ( 'NONE', #209, #90, #38 ) ;
#248 = CYLINDRICAL_SURFACE ( 'NONE', #17, 6.000000000000000888 ) ;
#249 = ORIENTED_EDGE ( 'NONE', *, *, #299, .F. ) ;
#250 = CARTESIAN_POINT ( 'NONE',  ( 0.000000000000000000, 0.000000000000000000, 0.000000000000000000 ) ) ;
#251 = CARTESIAN_POINT ( 'NONE',  ( 0.000000000000000000, 0.000000000000000000, 5.200000000000009948 ) ) ;
#252 = CC_DESIGN_SECURITY_CLASSIFICATION ( #126, ( #140 ) ) ;
#253 = CARTESIAN_POINT ( 'NONE',  ( -6.000000000000000888, 0.000000000000000000, 5.000000000000000000 ) ) ;
#254 = PLANE ( 'NONE',  #159 ) ;
#255 = PLANE ( 'NONE',  #172 ) ;
#256 = CARTESIAN_POINT ( 'NONE',  ( 0.000000000000000000, 0.000000000000000000, 5.000000000000000000 ) ) ;
#257 = LOCAL_TIME ( 14, 37, 32.00000000000000000, #25 ) ;
#258 = PERSON_AND_ORGANIZATION ( #145, #107 ) ;
#259 = EDGE_CURVE ( 'NONE', #29, #156, #74, .T. ) ;
#260 = UNCERTAINTY_MEASURE_WITH_UNIT (LENGTH_MEASURE( 1.000000000000000082E-05 ), #113, 'distance_accuracy_value', 'NONE');
#261 = PERSON_AND_ORGANIZATION ( #145, #107 ) ;
#262 = CIRCLE ( 'NONE', #228, 3.700000000000000178 ) ;
#263 = APPROVAL_DATE_TIME ( #73, #93 ) ;
#264 = PERSON_AND_ORGANIZATION_ROLE ( 'classification_officer' ) ;
#265 = ORIENTED_EDGE ( 'NONE', *, *, #48, .T. ) ;
#266 = PLANE ( 'NONE',  #99 ) ;
#267 = ADVANCED_BREP_SHAPE_REPRESENTATION ( '09a2', ( #134, #118 ), #61 ) ;
#268 = VERTEX_POINT ( 'NONE', #232 ) ;
#269 = DIRECTION ( 'NONE',  ( 1.000000000000000000, 0.000000000000000000, 0.000000000000000000 ) ) ;
#270 = EDGE_LOOP ( 'NONE', ( #288, #160 ) ) ;
#271 = CARTESIAN_POINT ( 'NONE',  ( 6.000000000000000888, 7.347880794884120722E-16, 5.000000000000000000 ) ) ;
#272 = CC_DESIGN_DATE_AND_TIME_ASSIGNMENT ( #115, #92, ( #146 ) ) ;
#273 = CC_DESIGN_APPROVAL ( #222, ( #146 ) ) ;
#274 = VERTEX_POINT ( 'NONE', #303 ) ;
#275 = CARTESIAN_POINT ( 'NONE',  ( 0.000000000000000000, 0.000000000000000000, 0.000000000000000000 ) ) ;
#276 = FACE_OUTER_BOUND ( 'NONE', #82, .T. ) ;
#277 = TOROIDAL_SURFACE ( 'NONE', #147, 3.700000000000000178, 0.2000000000000000111 ) ;
#278 = CARTESIAN_POINT ( 'NONE',  ( 0.000000000000000000, 0.000000000000000000, 5.200000000000009948 ) ) ;
#279 = CC_DESIGN_PERSON_AND_ORGANIZATION_ASSIGNMENT ( #70, #71, ( #137 ) ) ;
#280 = DESIGN_CONTEXT ( 'detailed design', #211, 'design' ) ;
#281 = DIRECTION ( 'NONE',  ( 0.000000000000000000, 0.000000000000000000, 1.000000000000000000 ) ) ;
#282 = DIRECTION ( 'NONE',  ( 1.000000000000000000, 0.000000000000000000, 0.000000000000000000 ) ) ;
#283 = APPROVAL ( #26, 'NEURÈENÝ' ) ;
#284 = CALENDAR_DATE ( 2022, 7, 7 ) ;
#285 = APPLICATION_PROTOCOL_DEFINITION ( 'international standard', 'config_control_design', 1994, #211 ) ;
#286 = EDGE_CURVE ( 'NONE', #78, #29, #39, .T. ) ;
#287 = AXIS2_PLACEMENT_3D ( 'NONE', #88, #66, #109 ) ;
#288 = ORIENTED_EDGE ( 'NONE', *, *, #241, .T. ) ;
#289 = VERTEX_POINT ( 'NONE', #89 ) ;
#290 = ORIENTED_EDGE ( 'NONE', *, *, #142, .F. ) ;
#291 = DIRECTION ( 'NONE',  ( 1.000000000000000000, 0.000000000000000000, 0.000000000000000000 ) ) ;
#292 = CARTESIAN_POINT ( 'NONE',  ( 0.000000000000000000, 0.000000000000000000, 205.0000000000000284 ) ) ;
#293 = ADVANCED_FACE ( 'NONE', ( #166 ), #255, .T. ) ;
#294 = DIRECTION ( 'NONE',  ( -0.000000000000000000, -0.000000000000000000, -1.000000000000000000 ) ) ;
#295 = CC_DESIGN_APPROVAL ( #283, ( #140 ) ) ;
#296 = EDGE_LOOP ( 'NONE', ( #36, #35 ) ) ;
#297 = DIRECTION ( 'NONE',  ( 1.000000000000000000, 0.000000000000000000, 0.000000000000000000 ) ) ;
#298 = AXIS2_PLACEMENT_3D ( 'NONE', #219, #60, #102 ) ;
#299 = EDGE_CURVE ( 'NONE', #80, #199, #194, .T. ) ;
#300 = VECTOR ( 'NONE', #12, 1000.000000000000000 ) ;
#301 = FACE_OUTER_BOUND ( 'NONE', #296, .T. ) ;
#302 = AXIS2_PLACEMENT_3D ( 'NONE', #87, #45, #18 ) ;
#303 = CARTESIAN_POINT ( 'NONE',  ( 3.700000000000000178, 0.000000000000000000, 5.000000000000005329 ) ) ;
#304 = PRODUCT_DEFINITION_SHAPE ( 'NONE', 'NONE',  #146 ) ;
#305 = CARTESIAN_POINT ( 'NONE',  ( 3.500000000000000000, 4.286263797015736595E-16, 205.0000000000000284 ) ) ;
#306 = APPROVAL_ROLE ( '' ) ;
#307 = LOCAL_TIME ( 14, 37, 32.00000000000000000, #94 ) ;
ENDSEC;
END-ISO-10303-21;
