ISO-10303-21;
HEADER;
FILE_DESCRIPTION (( 'STEP AP203' ),
    '1' );
FILE_NAME ('1579.STEP',
    '2022-07-07T12:38:31',
    ( '' ),
    ( '' ),
    'SwSTEP 2.0',
    'SolidWorks 2019',
    '' );
FILE_SCHEMA (( 'CONFIG_CONTROL_DESIGN' ));
ENDSEC;

DATA;
#1 = DIRECTION ( 'NONE',  ( 1.000000000000000000, 0.000000000000000000, 0.000000000000000000 ) ) ;
#2 = EDGE_CURVE ( 'NONE', #277, #165, #170, .T. ) ;
#3 = CARTESIAN_POINT ( 'NONE',  ( 6.000000000000000888, 7.347880794884120722E-16, 5.000000000000000000 ) ) ;
#4 = AXIS2_PLACEMENT_3D ( 'NONE', #227, #36, #59 ) ;
#5 = VERTEX_POINT ( 'NONE', #307 ) ;
#6 = EDGE_CURVE ( 'NONE', #118, #286, #10, .T. ) ;
#7 = CYLINDRICAL_SURFACE ( 'NONE', #65, 3.250000000000000444 ) ;
#8 = CARTESIAN_POINT ( 'NONE',  ( 0.000000000000000000, 0.000000000000000000, 5.000000000000000000 ) ) ;
#9 =( NAMED_UNIT ( * ) PLANE_ANGLE_UNIT ( ) SI_UNIT ( $, .RADIAN. ) );
#10 = CIRCLE ( 'NONE', #183, 0.2000000000000000944 ) ;
#11 = CC_DESIGN_APPROVAL ( #180, ( #255 ) ) ;
#12 = CARTESIAN_POINT ( 'NONE',  ( 0.000000000000000000, 0.000000000000000000, 405.0000000000000000 ) ) ;
#13 = PERSON_AND_ORGANIZATION ( #144, #97 ) ;
#14 = CARTESIAN_POINT ( 'NONE',  ( 0.000000000000000000, 0.000000000000000000, 0.000000000000000000 ) ) ;
#15 = COORDINATED_UNIVERSAL_TIME_OFFSET ( 1, 0, .AHEAD. ) ;
#16 = FACE_OUTER_BOUND ( 'NONE', #159, .T. ) ;
#17 = PERSON_AND_ORGANIZATION ( #144, #97 ) ;
#18 = CC_DESIGN_APPROVAL ( #147, ( #281 ) ) ;
#19 = DATE_AND_TIME ( #230, #114 ) ;
#20 = ORIENTED_EDGE ( 'NONE', *, *, #6, .F. ) ;
#21 = AXIS2_PLACEMENT_3D ( 'NONE', #76, #238, #27 ) ;
#22 = ORIENTED_EDGE ( 'NONE', *, *, #176, .F. ) ;
#23 = FACE_OUTER_BOUND ( 'NONE', #305, .T. ) ;
#24 = VECTOR ( 'NONE', #236, 1000.000000000000000 ) ;
#25 = TOROIDAL_SURFACE ( 'NONE', #212, 3.450000000000000178, 0.2000000000000000111 ) ;
#26 = CC_DESIGN_PERSON_AND_ORGANIZATION_ASSIGNMENT ( #149, #201, ( #255 ) ) ;
#27 = DIRECTION ( 'NONE',  ( 1.000000000000000000, 0.000000000000000000, 0.000000000000000000 ) ) ;
#28 = EDGE_LOOP ( 'NONE', ( #115, #274 ) ) ;
#29 = CARTESIAN_POINT ( 'NONE',  ( -3.250000000000000444, 0.000000000000000000, 5.199999999999982414 ) ) ;
#30 = CC_DESIGN_PERSON_AND_ORGANIZATION_ASSIGNMENT ( #17, #134, ( #306 ) ) ;
#31 = CIRCLE ( 'NONE', #229, 3.450000000000000178 ) ;
#32 = FACE_OUTER_BOUND ( 'NONE', #142, .T. ) ;
#33 = CARTESIAN_POINT ( 'NONE',  ( 0.000000000000000000, 0.000000000000000000, 5.000000000000000000 ) ) ;
#34 = DIRECTION ( 'NONE',  ( 0.000000000000000000, 0.000000000000000000, 1.000000000000000000 ) ) ;
#35 = MANIFOLD_SOLID_BREP ( 'Zaoblit1', #161 ) ;
#36 = DIRECTION ( 'NONE',  ( 0.000000000000000000, 0.000000000000000000, 1.000000000000000000 ) ) ;
#37 = COORDINATED_UNIVERSAL_TIME_OFFSET ( 1, 0, .AHEAD. ) ;
#38 = CIRCLE ( 'NONE', #136, 6.000000000000000888 ) ;
#39 = FACE_OUTER_BOUND ( 'NONE', #302, .T. ) ;
#40 = PRODUCT ( '1579', '1579', '', ( #243 ) ) ;
#41 = CARTESIAN_POINT ( 'NONE',  ( 0.000000000000000000, 0.000000000000000000, 405.0000000000000000 ) ) ;
#42 = PERSON_AND_ORGANIZATION_ROLE ( 'design_owner' ) ;
#43 =( LENGTH_UNIT ( ) NAMED_UNIT ( * ) SI_UNIT ( .MILLI., .METRE. ) );
#44 = PERSON_AND_ORGANIZATION ( #144, #97 ) ;
#45 = AXIS2_PLACEMENT_3D ( 'NONE', #127, #34, #86 ) ;
#46 = ORIENTED_EDGE ( 'NONE', *, *, #117, .F. ) ;
#47 = ORIENTED_EDGE ( 'NONE', *, *, #176, .T. ) ;
#48 = ORIENTED_EDGE ( 'NONE', *, *, #73, .F. ) ;
#49 = CC_DESIGN_PERSON_AND_ORGANIZATION_ASSIGNMENT ( #268, #42, ( #40 ) ) ;
#50 = ORIENTED_EDGE ( 'NONE', *, *, #2, .F. ) ;
#51 = EDGE_CURVE ( 'NONE', #122, #79, #224, .T. ) ;
#52 = ORIENTED_EDGE ( 'NONE', *, *, #103, .F. ) ;
#53 = TOROIDAL_SURFACE ( 'NONE', #262, 3.450000000000000178, 0.2000000000000000111 ) ;
#54 = CARTESIAN_POINT ( 'NONE',  ( 0.000000000000000000, 0.000000000000000000, 0.000000000000000000 ) ) ;
#55 = ADVANCED_BREP_SHAPE_REPRESENTATION ( '1579', ( #35, #45 ), #237 ) ;
#56 = CARTESIAN_POINT ( 'NONE',  ( -3.450000000000000178, 4.225031457058368824E-16, 5.199999999999982414 ) ) ;
#57 = EDGE_LOOP ( 'NONE', ( #50, #141, #215, #164 ) ) ;
#58 = CIRCLE ( 'NONE', #74, 3.450000000000000178 ) ;
#59 = DIRECTION ( 'NONE',  ( 1.000000000000000000, 0.000000000000000000, 0.000000000000000000 ) ) ;
#60 = DIRECTION ( 'NONE',  ( 1.000000000000000000, 0.000000000000000000, -0.000000000000000000 ) ) ;
#61 = CALENDAR_DATE ( 2022, 7, 7 ) ;
#62 = CARTESIAN_POINT ( 'NONE',  ( 3.450000000000000178, 0.000000000000000000, 4.999999999999991118 ) ) ;
#63 = PERSON_AND_ORGANIZATION ( #144, #97 ) ;
#64 = AXIS2_PLACEMENT_3D ( 'NONE', #81, #261, #211 ) ;
#65 = AXIS2_PLACEMENT_3D ( 'NONE', #197, #125, #245 ) ;
#66 = DIRECTION ( 'NONE',  ( 0.000000000000000000, 0.000000000000000000, 1.000000000000000000 ) ) ;
#67 = CALENDAR_DATE ( 2022, 7, 7 ) ;
#68 = FACE_OUTER_BOUND ( 'NONE', #94, .T. ) ;
#69 = APPROVAL_ROLE ( '' ) ;
#70 = ORIENTED_EDGE ( 'NONE', *, *, #73, .T. ) ;
#71 = AXIS2_PLACEMENT_3D ( 'NONE', #202, #150, #105 ) ;
#72 = ORIENTED_EDGE ( 'NONE', *, *, #90, .T. ) ;
#73 = EDGE_CURVE ( 'NONE', #277, #5, #38, .T. ) ;
#74 = AXIS2_PLACEMENT_3D ( 'NONE', #174, #107, #292 ) ;
#75 = CARTESIAN_POINT ( 'NONE',  ( 3.250000000000000444, 3.980102097228898231E-16, 405.0000000000000000 ) ) ;
#76 = CARTESIAN_POINT ( 'NONE',  ( 0.000000000000000000, 0.000000000000000000, 5.199999999999982414 ) ) ;
#77 = CARTESIAN_POINT ( 'NONE',  ( -6.000000000000000888, 0.000000000000000000, 5.000000000000000000 ) ) ;
#78 = AXIS2_PLACEMENT_3D ( 'NONE', #8, #289, #102 ) ;
#79 = VERTEX_POINT ( 'NONE', #75 ) ;
#80 = ADVANCED_FACE ( 'NONE', ( #23 ), #25, .F. ) ;
#81 = CARTESIAN_POINT ( 'NONE',  ( 0.000000000000000000, 0.000000000000000000, 5.000000000000000000 ) ) ;
#82 = AXIS2_PLACEMENT_3D ( 'NONE', #41, #175, #223 ) ;
#83 = DIRECTION ( 'NONE',  ( 1.000000000000000000, 0.000000000000000000, 0.000000000000000000 ) ) ;
#84 = EDGE_CURVE ( 'NONE', #5, #277, #95, .T. ) ;
#85 = DIRECTION ( 'NONE',  ( -0.000000000000000000, -0.000000000000000000, -1.000000000000000000 ) ) ;
#86 = DIRECTION ( 'NONE',  ( 1.000000000000000000, 0.000000000000000000, 0.000000000000000000 ) ) ;
#87 = FACE_BOUND ( 'NONE', #251, .T. ) ;
#88 = PERSON_AND_ORGANIZATION_ROLE ( 'design_supplier' ) ;
#89 = AXIS2_PLACEMENT_3D ( 'NONE', #33, #296, #60 ) ;
#90 = EDGE_CURVE ( 'NONE', #165, #93, #101, .T. ) ;
#91 = CARTESIAN_POINT ( 'NONE',  ( -3.250000000000000444, 0.000000000000000000, 405.0000000000000000 ) ) ;
#92 = APPROVAL_STATUS ( 'not_yet_approved' ) ;
#93 = VERTEX_POINT ( 'NONE', #240 ) ;
#94 = EDGE_LOOP ( 'NONE', ( #280, #181, #124, #260 ) ) ;
#95 = CIRCLE ( 'NONE', #258, 6.000000000000000888 ) ;
#96 = ORIENTED_EDGE ( 'NONE', *, *, #254, .T. ) ;
#97 = ORGANIZATION ( 'NEURÈENÝ', 'NEURÈENÝ', '' ) ;
#98 = CARTESIAN_POINT ( 'NONE',  ( 0.000000000000000000, 0.000000000000000000, 405.0000000000000000 ) ) ;
#99 = EDGE_LOOP ( 'NONE', ( #214, #70 ) ) ;
#100 = LINE ( 'NONE', #77, #217 ) ;
#101 = CIRCLE ( 'NONE', #169, 6.000000000000000888 ) ;
#102 = DIRECTION ( 'NONE',  ( -1.000000000000000000, 0.000000000000000000, 0.000000000000000000 ) ) ;
#103 = EDGE_CURVE ( 'NONE', #257, #118, #163, .T. ) ;
#104 = DIRECTION ( 'NONE',  ( 1.000000000000000000, 0.000000000000000000, 0.000000000000000000 ) ) ;
#105 = DIRECTION ( 'NONE',  ( 1.000000000000000000, 0.000000000000000000, -0.000000000000000000 ) ) ;
#106 = APPROVAL_ROLE ( '' ) ;
#107 = DIRECTION ( 'NONE',  ( -0.000000000000000000, -0.000000000000000000, -1.000000000000000000 ) ) ;
#108 = APPROVAL_DATE_TIME ( #300, #167 ) ;
#109 = CARTESIAN_POINT ( 'NONE',  ( 6.000000000000000888, 7.347880794884120722E-16, 5.000000000000000000 ) ) ;
#110 = SECURITY_CLASSIFICATION_LEVEL ( 'unclassified' ) ;
#111 = LOCAL_TIME ( 14, 38, 31.00000000000000000, #151 ) ;
#112 = APPROVAL_DATE_TIME ( #19, #147 ) ;
#113 = ORIENTED_EDGE ( 'NONE', *, *, #185, .T. ) ;
#114 = LOCAL_TIME ( 14, 38, 31.00000000000000000, #135 ) ;
#115 = ORIENTED_EDGE ( 'NONE', *, *, #51, .T. ) ;
#116 = EDGE_LOOP ( 'NONE', ( #253, #119 ) ) ;
#117 = EDGE_CURVE ( 'NONE', #5, #93, #100, .T. ) ;
#118 = VERTEX_POINT ( 'NONE', #29 ) ;
#119 = ORIENTED_EDGE ( 'NONE', *, *, #90, .F. ) ;
#120 = AXIS2_PLACEMENT_3D ( 'NONE', #98, #121, #143 ) ;
#121 = DIRECTION ( 'NONE',  ( 0.000000000000000000, 0.000000000000000000, 1.000000000000000000 ) ) ;
#122 = VERTEX_POINT ( 'NONE', #218 ) ;
#123 = CC_DESIGN_DATE_AND_TIME_ASSIGNMENT ( #156, #228, ( #281 ) ) ;
#124 = ORIENTED_EDGE ( 'NONE', *, *, #103, .T. ) ;
#125 = DIRECTION ( 'NONE',  ( -0.000000000000000000, -0.000000000000000000, -1.000000000000000000 ) ) ;
#126 = CYLINDRICAL_SURFACE ( 'NONE', #207, 3.250000000000000444 ) ;
#127 = CARTESIAN_POINT ( 'NONE',  ( 0.000000000000000000, 0.000000000000000000, 0.000000000000000000 ) ) ;
#128 = LINE ( 'NONE', #91, #138 ) ;
#129 = DATE_AND_TIME ( #61, #111 ) ;
#130 = CIRCLE ( 'NONE', #203, 6.000000000000000888 ) ;
#131 = CARTESIAN_POINT ( 'NONE',  ( 3.250000000000000444, 3.980102097228898231E-16, 5.199999999999982414 ) ) ;
#132 = CARTESIAN_POINT ( 'NONE',  ( 0.000000000000000000, 0.000000000000000000, 5.199999999999982414 ) ) ;
#133 = ADVANCED_FACE ( 'NONE', ( #284 ), #145, .T. ) ;
#134 = PERSON_AND_ORGANIZATION_ROLE ( 'creator' ) ;
#135 = COORDINATED_UNIVERSAL_TIME_OFFSET ( 1, 0, .AHEAD. ) ;
#136 = AXIS2_PLACEMENT_3D ( 'NONE', #172, #188, #282 ) ;
#137 = ORIENTED_EDGE ( 'NONE', *, *, #51, .F. ) ;
#138 = VECTOR ( 'NONE', #148, 1000.000000000000000 ) ;
#139 = EDGE_CURVE ( 'NONE', #286, #231, #31, .T. ) ;
#140 = DIRECTION ( 'NONE',  ( 0.000000000000000000, 0.000000000000000000, 1.000000000000000000 ) ) ;
#141 = ORIENTED_EDGE ( 'NONE', *, *, #84, .F. ) ;
#142 = EDGE_LOOP ( 'NONE', ( #234, #137, #232, #96 ) ) ;
#143 = DIRECTION ( 'NONE',  ( 1.000000000000000000, 0.000000000000000000, 0.000000000000000000 ) ) ;
#144 = PERSON ( 'NEURÈENÝ', 'NEURÈENÝ', 'NEURÈENÝ', ('NEURÈENÝ'), ('NEURÈENÝ'), ('NEURÈENÝ') ) ;
#145 = CYLINDRICAL_SURFACE ( 'NONE', #64, 6.000000000000000888 ) ;
#146 = APPROVAL_PERSON_ORGANIZATION ( #298, #147, #69 ) ;
#147 = APPROVAL ( #92, 'NEURÈENÝ' ) ;
#148 = DIRECTION ( 'NONE',  ( -0.000000000000000000, -0.000000000000000000, -1.000000000000000000 ) ) ;
#149 = PERSON_AND_ORGANIZATION ( #144, #97 ) ;
#150 = DIRECTION ( 'NONE',  ( 0.000000000000000000, 0.000000000000000000, 1.000000000000000000 ) ) ;
#151 = COORDINATED_UNIVERSAL_TIME_OFFSET ( 1, 0, .AHEAD. ) ;
#152 = CARTESIAN_POINT ( 'NONE',  ( 6.000000000000000888, 7.347880794884120722E-16, 0.000000000000000000 ) ) ;
#153 = CALENDAR_DATE ( 2022, 7, 7 ) ;
#154 = EDGE_CURVE ( 'NONE', #79, #257, #195, .T. ) ;
#155 = DIRECTION ( 'NONE',  ( 0.000000000000000000, -1.000000000000000000, 0.000000000000000000 ) ) ;
#156 = DATE_AND_TIME ( #67, #246 ) ;
#157 = DIRECTION ( 'NONE',  ( 0.000000000000000000, 0.000000000000000000, 1.000000000000000000 ) ) ;
#158 = APPROVAL_STATUS ( 'not_yet_approved' ) ;
#159 = EDGE_LOOP ( 'NONE', ( #48, #259, #72, #46 ) ) ;
#160 = EDGE_CURVE ( 'NONE', #122, #118, #128, .T. ) ;
#161 = CLOSED_SHELL ( 'NONE', ( #304, #198, #213, #133, #248, #285, #288, #192, #80 ) ) ;
#162 = CIRCLE ( 'NONE', #303, 0.1999999999999996503 ) ;
#163 = CIRCLE ( 'NONE', #21, 3.250000000000000444 ) ;
#164 = ORIENTED_EDGE ( 'NONE', *, *, #171, .T. ) ;
#165 = VERTEX_POINT ( 'NONE', #152 ) ;
#166 = DIRECTION ( 'NONE',  ( 1.224646799147353207E-16, 1.000000000000000000, -0.000000000000000000 ) ) ;
#167 = APPROVAL ( #222, 'NEURÈENÝ' ) ;
#168 = ORIENTED_EDGE ( 'NONE', *, *, #139, .T. ) ;
#169 = AXIS2_PLACEMENT_3D ( 'NONE', #54, #239, #216 ) ;
#170 = LINE ( 'NONE', #3, #24 ) ;
#171 = EDGE_CURVE ( 'NONE', #93, #165, #130, .T. ) ;
#172 = CARTESIAN_POINT ( 'NONE',  ( 0.000000000000000000, 0.000000000000000000, 5.000000000000000000 ) ) ;
#173 = CIRCLE ( 'NONE', #4, 3.250000000000000444 ) ;
#174 = CARTESIAN_POINT ( 'NONE',  ( 0.000000000000000000, 0.000000000000000000, 5.000000000000000000 ) ) ;
#175 = DIRECTION ( 'NONE',  ( 0.000000000000000000, 0.000000000000000000, 1.000000000000000000 ) ) ;
#176 = EDGE_CURVE ( 'NONE', #257, #231, #162, .T. ) ;
#177 = FACE_OUTER_BOUND ( 'NONE', #99, .T. ) ;
#178 = PERSON_AND_ORGANIZATION_ROLE ( 'classification_officer' ) ;
#179 = CARTESIAN_POINT ( 'NONE',  ( 3.450000000000000178, 0.000000000000000000, 5.199999999999982414 ) ) ;
#180 = APPROVAL ( #158, 'NEURÈENÝ' ) ;
#181 = ORIENTED_EDGE ( 'NONE', *, *, #154, .T. ) ;
#182 = APPROVAL_ROLE ( '' ) ;
#183 = AXIS2_PLACEMENT_3D ( 'NONE', #56, #166, #186 ) ;
#184 = AXIS2_PLACEMENT_3D ( 'NONE', #132, #66, #104 ) ;
#185 = EDGE_CURVE ( 'NONE', #231, #286, #58, .T. ) ;
#186 = DIRECTION ( 'NONE',  ( -1.000000000000000000, 1.224646799147350742E-16, 0.000000000000000000 ) ) ;
#187 = DIRECTION ( 'NONE',  ( 0.000000000000000000, 0.000000000000000000, 1.000000000000000000 ) ) ;
#188 = DIRECTION ( 'NONE',  ( 0.000000000000000000, 0.000000000000000000, 1.000000000000000000 ) ) ;
#189 = APPROVAL_PERSON_ORGANIZATION ( #13, #167, #106 ) ;
#190 = DIRECTION ( 'NONE',  ( -0.000000000000000000, -0.000000000000000000, -1.000000000000000000 ) ) ;
#191 = CIRCLE ( 'NONE', #184, 3.250000000000000444 ) ;
#192 = ADVANCED_FACE ( 'NONE', ( #219 ), #265, .T. ) ;
#193 = CARTESIAN_POINT ( 'NONE',  ( 0.000000000000000000, 0.000000000000000000, 5.199999999999982414 ) ) ;
#194 = CYLINDRICAL_SURFACE ( 'NONE', #78, 6.000000000000000888 ) ;
#195 = LINE ( 'NONE', #244, #270 ) ;
#196 =( NAMED_UNIT ( * ) SI_UNIT ( $, .STERADIAN. ) SOLID_ANGLE_UNIT ( ) );
#197 = CARTESIAN_POINT ( 'NONE',  ( 0.000000000000000000, 0.000000000000000000, 405.0000000000000000 ) ) ;
#198 = ADVANCED_FACE ( 'NONE', ( #68 ), #126, .T. ) ;
#199 = APPROVAL_DATE_TIME ( #129, #180 ) ;
#200 = CARTESIAN_POINT ( 'NONE',  ( -3.450000000000000178, 4.225031457058368824E-16, 4.999999999999991118 ) ) ;
#201 = PERSON_AND_ORGANIZATION_ROLE ( 'creator' ) ;
#202 = CARTESIAN_POINT ( 'NONE',  ( 0.000000000000000000, 0.000000000000000000, 0.000000000000000000 ) ) ;
#203 = AXIS2_PLACEMENT_3D ( 'NONE', #14, #295, #83 ) ;
#204 = APPLICATION_CONTEXT ( 'configuration controlled 3d designs of mechanical parts and assemblies' ) ;
#205 = SHAPE_DEFINITION_REPRESENTATION ( #294, #55 ) ;
#206 = ORIENTED_EDGE ( 'NONE', *, *, #254, .F. ) ;
#207 = AXIS2_PLACEMENT_3D ( 'NONE', #12, #241, #267 ) ;
#208 = DESIGN_CONTEXT ( 'detailed design', #220, 'design' ) ;
#209 = ORIENTED_EDGE ( 'NONE', *, *, #6, .T. ) ;
#210 = CC_DESIGN_DATE_AND_TIME_ASSIGNMENT ( #225, #293, ( #255 ) ) ;
#211 = DIRECTION ( 'NONE',  ( -1.000000000000000000, 0.000000000000000000, 0.000000000000000000 ) ) ;
#212 = AXIS2_PLACEMENT_3D ( 'NONE', #193, #187, #1 ) ;
#213 = ADVANCED_FACE ( 'NONE', ( #16 ), #194, .T. ) ;
#214 = ORIENTED_EDGE ( 'NONE', *, *, #84, .T. ) ;
#215 = ORIENTED_EDGE ( 'NONE', *, *, #117, .T. ) ;
#216 = DIRECTION ( 'NONE',  ( 1.000000000000000000, 0.000000000000000000, 0.000000000000000000 ) ) ;
#217 = VECTOR ( 'NONE', #190, 1000.000000000000000 ) ;
#218 = CARTESIAN_POINT ( 'NONE',  ( -3.250000000000000444, 0.000000000000000000, 405.0000000000000000 ) ) ;
#219 = FACE_OUTER_BOUND ( 'NONE', #28, .T. ) ;
#220 = APPLICATION_CONTEXT ( 'configuration controlled 3d designs of mechanical parts and assemblies' ) ;
#221 = PLANE ( 'NONE',  #71 ) ;
#222 = APPROVAL_STATUS ( 'not_yet_approved' ) ;
#223 = DIRECTION ( 'NONE',  ( 1.000000000000000000, 0.000000000000000000, -0.000000000000000000 ) ) ;
#224 = CIRCLE ( 'NONE', #120, 3.250000000000000444 ) ;
#225 = DATE_AND_TIME ( #153, #290 ) ;
#226 = FACE_OUTER_BOUND ( 'NONE', #116, .T. ) ;
#227 = CARTESIAN_POINT ( 'NONE',  ( 0.000000000000000000, 0.000000000000000000, 405.0000000000000000 ) ) ;
#228 = DATE_TIME_ROLE ( 'classification_date' ) ;
#229 = AXIS2_PLACEMENT_3D ( 'NONE', #247, #272, #242 ) ;
#230 = CALENDAR_DATE ( 2022, 7, 7 ) ;
#231 = VERTEX_POINT ( 'NONE', #62 ) ;
#232 = ORIENTED_EDGE ( 'NONE', *, *, #160, .T. ) ;
#233 = CC_DESIGN_PERSON_AND_ORGANIZATION_ASSIGNMENT ( #44, #178, ( #281 ) ) ;
#234 = ORIENTED_EDGE ( 'NONE', *, *, #154, .F. ) ;
#235 = CC_DESIGN_SECURITY_CLASSIFICATION ( #281, ( #306 ) ) ;
#236 = DIRECTION ( 'NONE',  ( -0.000000000000000000, -0.000000000000000000, -1.000000000000000000 ) ) ;
#237 =( GEOMETRIC_REPRESENTATION_CONTEXT ( 3 ) GLOBAL_UNCERTAINTY_ASSIGNED_CONTEXT ( ( #278 ) ) GLOBAL_UNIT_ASSIGNED_CONTEXT ( ( #43, #9, #196 ) ) REPRESENTATION_CONTEXT ( 'NONE', 'WORKASPACE' ) );
#238 = DIRECTION ( 'NONE',  ( 0.000000000000000000, 0.000000000000000000, 1.000000000000000000 ) ) ;
#239 = DIRECTION ( 'NONE',  ( 0.000000000000000000, 0.000000000000000000, 1.000000000000000000 ) ) ;
#240 = CARTESIAN_POINT ( 'NONE',  ( -6.000000000000000888, 0.000000000000000000, 0.000000000000000000 ) ) ;
#241 = DIRECTION ( 'NONE',  ( -0.000000000000000000, -0.000000000000000000, -1.000000000000000000 ) ) ;
#242 = DIRECTION ( 'NONE',  ( 1.000000000000000000, 0.000000000000000000, 0.000000000000000000 ) ) ;
#243 = MECHANICAL_CONTEXT ( 'NONE', #204, 'mechanical' ) ;
#244 = CARTESIAN_POINT ( 'NONE',  ( 3.250000000000000444, 3.980102097228898231E-16, 405.0000000000000000 ) ) ;
#245 = DIRECTION ( 'NONE',  ( -1.000000000000000000, 0.000000000000000000, 0.000000000000000000 ) ) ;
#246 = LOCAL_TIME ( 14, 38, 31.00000000000000000, #271 ) ;
#247 = CARTESIAN_POINT ( 'NONE',  ( 0.000000000000000000, 0.000000000000000000, 5.000000000000000000 ) ) ;
#248 = ADVANCED_FACE ( 'NONE', ( #87, #177 ), #269, .T. ) ;
#249 = PERSON_AND_ORGANIZATION ( #144, #97 ) ;
#250 = DIRECTION ( 'NONE',  ( 1.000000000000000000, 0.000000000000000000, 0.000000000000000000 ) ) ;
#251 = EDGE_LOOP ( 'NONE', ( #113, #168 ) ) ;
#252 = CC_DESIGN_APPROVAL ( #167, ( #306 ) ) ;
#253 = ORIENTED_EDGE ( 'NONE', *, *, #171, .F. ) ;
#254 = EDGE_CURVE ( 'NONE', #118, #257, #191, .T. ) ;
#255 = PRODUCT_DEFINITION ( 'NEZNÁMÝ', '', #306, #208 ) ;
#256 = CARTESIAN_POINT ( 'NONE',  ( 0.000000000000000000, 0.000000000000000000, 5.000000000000000000 ) ) ;
#257 = VERTEX_POINT ( 'NONE', #131 ) ;
#258 = AXIS2_PLACEMENT_3D ( 'NONE', #256, #140, #283 ) ;
#259 = ORIENTED_EDGE ( 'NONE', *, *, #2, .T. ) ;
#260 = ORIENTED_EDGE ( 'NONE', *, *, #160, .F. ) ;
#261 = DIRECTION ( 'NONE',  ( -0.000000000000000000, -0.000000000000000000, -1.000000000000000000 ) ) ;
#262 = AXIS2_PLACEMENT_3D ( 'NONE', #263, #157, #250 ) ;
#263 = CARTESIAN_POINT ( 'NONE',  ( 0.000000000000000000, 0.000000000000000000, 5.199999999999982414 ) ) ;
#264 = EDGE_CURVE ( 'NONE', #79, #122, #173, .T. ) ;
#265 = PLANE ( 'NONE',  #82 ) ;
#266 = APPLICATION_PROTOCOL_DEFINITION ( 'international standard', 'config_control_design', 1994, #220 ) ;
#267 = DIRECTION ( 'NONE',  ( -1.000000000000000000, 0.000000000000000000, 0.000000000000000000 ) ) ;
#268 = PERSON_AND_ORGANIZATION ( #144, #97 ) ;
#269 = PLANE ( 'NONE',  #89 ) ;
#270 = VECTOR ( 'NONE', #85, 1000.000000000000000 ) ;
#271 = COORDINATED_UNIVERSAL_TIME_OFFSET ( 1, 0, .AHEAD. ) ;
#272 = DIRECTION ( 'NONE',  ( -0.000000000000000000, -0.000000000000000000, -1.000000000000000000 ) ) ;
#273 = CALENDAR_DATE ( 2022, 7, 7 ) ;
#274 = ORIENTED_EDGE ( 'NONE', *, *, #264, .T. ) ;
#275 = APPLICATION_PROTOCOL_DEFINITION ( 'international standard', 'config_control_design', 1994, #204 ) ;
#276 = LOCAL_TIME ( 14, 38, 31.00000000000000000, #15 ) ;
#277 = VERTEX_POINT ( 'NONE', #109 ) ;
#278 = UNCERTAINTY_MEASURE_WITH_UNIT (LENGTH_MEASURE( 1.000000000000000082E-05 ), #43, 'distance_accuracy_value', 'NONE');
#279 = PRODUCT_RELATED_PRODUCT_CATEGORY ( 'detail', '', ( #40 ) ) ;
#280 = ORIENTED_EDGE ( 'NONE', *, *, #264, .F. ) ;
#281 = SECURITY_CLASSIFICATION ( '', '', #110 ) ;
#282 = DIRECTION ( 'NONE',  ( 1.000000000000000000, 0.000000000000000000, 0.000000000000000000 ) ) ;
#283 = DIRECTION ( 'NONE',  ( 1.000000000000000000, 0.000000000000000000, 0.000000000000000000 ) ) ;
#284 = FACE_OUTER_BOUND ( 'NONE', #57, .T. ) ;
#285 = ADVANCED_FACE ( 'NONE', ( #226 ), #221, .F. ) ;
#286 = VERTEX_POINT ( 'NONE', #200 ) ;
#287 = ORIENTED_EDGE ( 'NONE', *, *, #185, .F. ) ;
#288 = ADVANCED_FACE ( 'NONE', ( #32 ), #7, .T. ) ;
#289 = DIRECTION ( 'NONE',  ( -0.000000000000000000, -0.000000000000000000, -1.000000000000000000 ) ) ;
#290 = LOCAL_TIME ( 14, 38, 31.00000000000000000, #37 ) ;
#291 = DIRECTION ( 'NONE',  ( 0.000000000000000000, 0.000000000000000000, -1.000000000000000000 ) ) ;
#292 = DIRECTION ( 'NONE',  ( 1.000000000000000000, 0.000000000000000000, 0.000000000000000000 ) ) ;
#293 = DATE_TIME_ROLE ( 'creation_date' ) ;
#294 = PRODUCT_DEFINITION_SHAPE ( 'NONE', 'NONE',  #255 ) ;
#295 = DIRECTION ( 'NONE',  ( 0.000000000000000000, 0.000000000000000000, 1.000000000000000000 ) ) ;
#296 = DIRECTION ( 'NONE',  ( 0.000000000000000000, 0.000000000000000000, 1.000000000000000000 ) ) ;
#297 = APPROVAL_PERSON_ORGANIZATION ( #63, #180, #182 ) ;
#298 = PERSON_AND_ORGANIZATION ( #144, #97 ) ;
#299 = ORIENTED_EDGE ( 'NONE', *, *, #139, .F. ) ;
#300 = DATE_AND_TIME ( #273, #276 ) ;
#301 = CC_DESIGN_PERSON_AND_ORGANIZATION_ASSIGNMENT ( #249, #88, ( #306 ) ) ;
#302 = EDGE_LOOP ( 'NONE', ( #206, #209, #287, #22 ) ) ;
#303 = AXIS2_PLACEMENT_3D ( 'NONE', #179, #155, #291 ) ;
#304 = ADVANCED_FACE ( 'NONE', ( #39 ), #53, .F. ) ;
#305 = EDGE_LOOP ( 'NONE', ( #20, #52, #47, #299 ) ) ;
#306 = PRODUCT_DEFINITION_FORMATION_WITH_SPECIFIED_SOURCE ( 'LIBOVOLNÝ', '', #40, .NOT_KNOWN. ) ;
#307 = CARTESIAN_POINT ( 'NONE',  ( -6.000000000000000888, 0.000000000000000000, 5.000000000000000000 ) ) ;
ENDSEC;
END-ISO-10303-21;
