ISO-10303-21;
HEADER;
FILE_DESCRIPTION (( 'STEP AP203' ),
    '1' );
FILE_NAME ('45df.STEP',
    '2023-02-12T10:37:08',
    ( '' ),
    ( '' ),
    'SwSTEP 2.0',
    'SolidWorks 2019',
    '' );
FILE_SCHEMA (( 'CONFIG_CONTROL_DESIGN' ));
ENDSEC;

DATA;
#1 = CARTESIAN_POINT ( 'NONE',  ( 12.00000000000000178, 1.469576158976824144E-15, 0.000000000000000000 ) ) ;
#2 = CARTESIAN_POINT ( 'NONE',  ( 0.000000000000000000, 0.000000000000000000, 7.000000000000000000 ) ) ;
#3 = VERTEX_POINT ( 'NONE', #195 ) ;
#4 = AXIS2_PLACEMENT_3D ( 'NONE', #134, #62, #131 ) ;
#5 = DIRECTION ( 'NONE',  ( 1.000000000000000000, 0.000000000000000000, 0.000000000000000000 ) ) ;
#6 = CARTESIAN_POINT ( 'NONE',  ( 0.000000000000000000, 0.000000000000000000, 7.000000000000000000 ) ) ;
#7 = CARTESIAN_POINT ( 'NONE',  ( 0.000000000000000000, 0.000000000000000000, 500.0000000000000000 ) ) ;
#8 = SECURITY_CLASSIFICATION_LEVEL ( 'unclassified' ) ;
#9 = PERSON_AND_ORGANIZATION ( #128, #252 ) ;
#10 = EDGE_CURVE ( 'NONE', #20, #80, #254, .T. ) ;
#11 = APPLICATION_CONTEXT ( 'configuration controlled 3d designs of mechanical parts and assemblies' ) ;
#12 = DIRECTION ( 'NONE',  ( 0.000000000000000000, 0.000000000000000000, 1.000000000000000000 ) ) ;
#13 = AXIS2_PLACEMENT_3D ( 'NONE', #160, #12, #66 ) ;
#14 = CARTESIAN_POINT ( 'NONE',  ( 0.000000000000000000, 0.000000000000000000, 500.0000000000000000 ) ) ;
#15 = APPLICATION_PROTOCOL_DEFINITION ( 'international standard', 'config_control_design', 1994, #180 ) ;
#16 = MANIFOLD_SOLID_BREP ( 'Pøidat vysunutím3', #249 ) ;
#17 = CARTESIAN_POINT ( 'NONE',  ( 0.000000000000000000, 0.000000000000000000, 0.000000000000000000 ) ) ;
#18 = ORIENTED_EDGE ( 'NONE', *, *, #67, .T. ) ;
#19 = UNCERTAINTY_MEASURE_WITH_UNIT (LENGTH_MEASURE( 1.000000000000000082E-05 ), #32, 'distance_accuracy_value', 'NONE');
#20 = VERTEX_POINT ( 'NONE', #109 ) ;
#21 = EDGE_CURVE ( 'NONE', #236, #139, #145, .T. ) ;
#22 = ORIENTED_EDGE ( 'NONE', *, *, #143, .F. ) ;
#23 = DIRECTION ( 'NONE',  ( -0.000000000000000000, -0.000000000000000000, -1.000000000000000000 ) ) ;
#24 = DIRECTION ( 'NONE',  ( 1.000000000000000000, 0.000000000000000000, 0.000000000000000000 ) ) ;
#25 = EDGE_LOOP ( 'NONE', ( #82, #115, #197, #35 ) ) ;
#26 = PERSON_AND_ORGANIZATION ( #128, #252 ) ;
#27 = PERSON_AND_ORGANIZATION_ROLE ( 'design_supplier' ) ;
#28 =( GEOMETRIC_REPRESENTATION_CONTEXT ( 3 ) GLOBAL_UNCERTAINTY_ASSIGNED_CONTEXT ( ( #19 ) ) GLOBAL_UNIT_ASSIGNED_CONTEXT ( ( #32, #55, #210 ) ) REPRESENTATION_CONTEXT ( 'NONE', 'WORKASPACE' ) );
#29 = PLANE ( 'NONE',  #40 ) ;
#30 = CALENDAR_DATE ( 2023, 12, 2 ) ;
#31 = CIRCLE ( 'NONE', #76, 9.000000000000001776 ) ;
#32 =( LENGTH_UNIT ( ) NAMED_UNIT ( * ) SI_UNIT ( .MILLI., .METRE. ) );
#33 = CIRCLE ( 'NONE', #58, 12.00000000000000178 ) ;
#34 = CC_DESIGN_APPROVAL ( #188, ( #198 ) ) ;
#35 = ORIENTED_EDGE ( 'NONE', *, *, #201, .T. ) ;
#36 = DIRECTION ( 'NONE',  ( 0.000000000000000000, 0.000000000000000000, 1.000000000000000000 ) ) ;
#37 = ORIENTED_EDGE ( 'NONE', *, *, #52, .T. ) ;
#38 = ADVANCED_FACE ( 'NONE', ( #49, #42 ), #29, .T. ) ;
#39 = ORIENTED_EDGE ( 'NONE', *, *, #10, .T. ) ;
#40 = AXIS2_PLACEMENT_3D ( 'NONE', #194, #97, #138 ) ;
#41 = CARTESIAN_POINT ( 'NONE',  ( -12.00000000000000178, 0.000000000000000000, 0.000000000000000000 ) ) ;
#42 = FACE_OUTER_BOUND ( 'NONE', #219, .T. ) ;
#43 = PRODUCT_RELATED_PRODUCT_CATEGORY ( 'detail', '', ( #96 ) ) ;
#44 = PERSON_AND_ORGANIZATION ( #128, #252 ) ;
#45 = FACE_OUTER_BOUND ( 'NONE', #158, .T. ) ;
#46 = DIRECTION ( 'NONE',  ( 1.000000000000000000, 0.000000000000000000, 0.000000000000000000 ) ) ;
#47 = APPROVAL_STATUS ( 'not_yet_approved' ) ;
#48 = APPROVAL_ROLE ( '' ) ;
#49 = FACE_BOUND ( 'NONE', #61, .T. ) ;
#50 = AXIS2_PLACEMENT_3D ( 'NONE', #230, #53, #107 ) ;
#51 = CC_DESIGN_APPROVAL ( #94, ( #152 ) ) ;
#52 = EDGE_CURVE ( 'NONE', #80, #20, #31, .T. ) ;
#53 = DIRECTION ( 'NONE',  ( 0.000000000000000000, 0.000000000000000000, 1.000000000000000000 ) ) ;
#54 = VERTEX_POINT ( 'NONE', #232 ) ;
#55 =( NAMED_UNIT ( * ) PLANE_ANGLE_UNIT ( ) SI_UNIT ( $, .RADIAN. ) );
#56 = AXIS2_PLACEMENT_3D ( 'NONE', #142, #104, #24 ) ;
#57 = ORIENTED_EDGE ( 'NONE', *, *, #122, .F. ) ;
#58 = AXIS2_PLACEMENT_3D ( 'NONE', #133, #36, #114 ) ;
#59 = CC_DESIGN_PERSON_AND_ORGANIZATION_ASSIGNMENT ( #44, #87, ( #74 ) ) ;
#60 = CARTESIAN_POINT ( 'NONE',  ( 0.000000000000000000, 0.000000000000000000, 500.0000000000000000 ) ) ;
#61 = EDGE_LOOP ( 'NONE', ( #217, #237 ) ) ;
#62 = DIRECTION ( 'NONE',  ( 0.000000000000000000, 0.000000000000000000, 1.000000000000000000 ) ) ;
#63 = CC_DESIGN_APPROVAL ( #247, ( #74 ) ) ;
#64 = VERTEX_POINT ( 'NONE', #117 ) ;
#65 = LOCAL_TIME ( 11, 37, 8.000000000000000000, #165 ) ;
#66 = DIRECTION ( 'NONE',  ( 1.000000000000000000, 0.000000000000000000, 0.000000000000000000 ) ) ;
#67 = EDGE_CURVE ( 'NONE', #54, #98, #213, .T. ) ;
#68 = DIRECTION ( 'NONE',  ( 0.000000000000000000, 0.000000000000000000, 1.000000000000000000 ) ) ;
#69 = DATE_TIME_ROLE ( 'creation_date' ) ;
#70 = FACE_OUTER_BOUND ( 'NONE', #113, .T. ) ;
#71 = CALENDAR_DATE ( 2023, 12, 2 ) ;
#72 = EDGE_CURVE ( 'NONE', #139, #98, #33, .T. ) ;
#73 = COORDINATED_UNIVERSAL_TIME_OFFSET ( 1, 0, .AHEAD. ) ;
#74 = SECURITY_CLASSIFICATION ( '', '', #8 ) ;
#75 = AXIS2_PLACEMENT_3D ( 'NONE', #14, #223, #46 ) ;
#76 = AXIS2_PLACEMENT_3D ( 'NONE', #193, #218, #156 ) ;
#77 = DIRECTION ( 'NONE',  ( -0.000000000000000000, -0.000000000000000000, -1.000000000000000000 ) ) ;
#78 = LOCAL_TIME ( 11, 37, 8.000000000000000000, #167 ) ;
#79 = DIRECTION ( 'NONE',  ( -0.000000000000000000, -0.000000000000000000, -1.000000000000000000 ) ) ;
#80 = VERTEX_POINT ( 'NONE', #81 ) ;
#81 = CARTESIAN_POINT ( 'NONE',  ( 9.000000000000001776, 1.102182119232617911E-15, 500.0000000000000000 ) ) ;
#82 = ORIENTED_EDGE ( 'NONE', *, *, #99, .F. ) ;
#83 = DIRECTION ( 'NONE',  ( -1.000000000000000000, 0.000000000000000000, 0.000000000000000000 ) ) ;
#84 = CC_DESIGN_DATE_AND_TIME_ASSIGNMENT ( #187, #69, ( #152 ) ) ;
#85 = DIRECTION ( 'NONE',  ( -0.000000000000000000, -0.000000000000000000, -1.000000000000000000 ) ) ;
#86 = CALENDAR_DATE ( 2023, 12, 2 ) ;
#87 = PERSON_AND_ORGANIZATION_ROLE ( 'classification_officer' ) ;
#88 = DIRECTION ( 'NONE',  ( -0.000000000000000000, -0.000000000000000000, -1.000000000000000000 ) ) ;
#89 = APPROVAL_DATE_TIME ( #203, #94 ) ;
#90 = LOCAL_TIME ( 11, 37, 8.000000000000000000, #222 ) ;
#91 = PERSON_AND_ORGANIZATION_ROLE ( 'creator' ) ;
#92 = DATE_TIME_ROLE ( 'classification_date' ) ;
#93 = APPROVAL_PERSON_ORGANIZATION ( #246, #247, #48 ) ;
#94 = APPROVAL ( #47, 'NEURÈENÝ' ) ;
#95 = CIRCLE ( 'NONE', #241, 12.00000000000000178 ) ;
#96 = PRODUCT ( '45df', '45df', '', ( #137 ) ) ;
#97 = DIRECTION ( 'NONE',  ( 0.000000000000000000, 0.000000000000000000, 1.000000000000000000 ) ) ;
#98 = VERTEX_POINT ( 'NONE', #41 ) ;
#99 = EDGE_CURVE ( 'NONE', #80, #64, #159, .T. ) ;
#100 = DIRECTION ( 'NONE',  ( -0.000000000000000000, -0.000000000000000000, -1.000000000000000000 ) ) ;
#101 = ORIENTED_EDGE ( 'NONE', *, *, #52, .F. ) ;
#102 = PERSON_AND_ORGANIZATION ( #128, #252 ) ;
#103 = PLANE ( 'NONE',  #162 ) ;
#104 = DIRECTION ( 'NONE',  ( 0.000000000000000000, 0.000000000000000000, 1.000000000000000000 ) ) ;
#105 = EDGE_CURVE ( 'NONE', #98, #139, #95, .T. ) ;
#106 = COORDINATED_UNIVERSAL_TIME_OFFSET ( 1, 0, .AHEAD. ) ;
#107 = DIRECTION ( 'NONE',  ( 1.000000000000000000, 0.000000000000000000, -0.000000000000000000 ) ) ;
#108 = AXIS2_PLACEMENT_3D ( 'NONE', #240, #23, #153 ) ;
#109 = CARTESIAN_POINT ( 'NONE',  ( -9.000000000000001776, 0.000000000000000000, 500.0000000000000000 ) ) ;
#110 = CIRCLE ( 'NONE', #56, 9.000000000000001776 ) ;
#111 = CIRCLE ( 'NONE', #169, 9.000000000000001776 ) ;
#112 = DESIGN_CONTEXT ( 'detailed design', #11, 'design' ) ;
#113 = EDGE_LOOP ( 'NONE', ( #136, #22, #18, #255 ) ) ;
#114 = DIRECTION ( 'NONE',  ( 1.000000000000000000, 0.000000000000000000, 0.000000000000000000 ) ) ;
#115 = ORIENTED_EDGE ( 'NONE', *, *, #10, .F. ) ;
#116 = ORIENTED_EDGE ( 'NONE', *, *, #72, .F. ) ;
#117 = CARTESIAN_POINT ( 'NONE',  ( 9.000000000000001776, 1.102182119232617911E-15, 7.000000000000000000 ) ) ;
#118 = ORIENTED_EDGE ( 'NONE', *, *, #184, .F. ) ;
#119 = CC_DESIGN_PERSON_AND_ORGANIZATION_ASSIGNMENT ( #9, #208, ( #198 ) ) ;
#120 = DIRECTION ( 'NONE',  ( 0.000000000000000000, 0.000000000000000000, 1.000000000000000000 ) ) ;
#121 = DATE_AND_TIME ( #245, #78 ) ;
#122 = EDGE_CURVE ( 'NONE', #20, #3, #251, .T. ) ;
#123 = FACE_OUTER_BOUND ( 'NONE', #253, .T. ) ;
#124 = PERSON_AND_ORGANIZATION ( #128, #252 ) ;
#125 = CARTESIAN_POINT ( 'NONE',  ( 0.000000000000000000, 0.000000000000000000, 7.000000000000000000 ) ) ;
#126 = SHAPE_DEFINITION_REPRESENTATION ( #248, #129 ) ;
#127 = AXIS2_PLACEMENT_3D ( 'NONE', #125, #207, #5 ) ;
#128 = PERSON ( 'NEURÈENÝ', 'NEURÈENÝ', 'NEURÈENÝ', ('NEURÈENÝ'), ('NEURÈENÝ'), ('NEURÈENÝ') ) ;
#129 = ADVANCED_BREP_SHAPE_REPRESENTATION ( '45df', ( #16, #4 ), #28 ) ;
#130 = EDGE_LOOP ( 'NONE', ( #101, #214, #200, #57 ) ) ;
#131 = DIRECTION ( 'NONE',  ( 1.000000000000000000, 0.000000000000000000, 0.000000000000000000 ) ) ;
#132 = ADVANCED_FACE ( 'NONE', ( #235 ), #135, .T. ) ;
#133 = CARTESIAN_POINT ( 'NONE',  ( 0.000000000000000000, 0.000000000000000000, 0.000000000000000000 ) ) ;
#134 = CARTESIAN_POINT ( 'NONE',  ( 0.000000000000000000, 0.000000000000000000, 0.000000000000000000 ) ) ;
#135 = CYLINDRICAL_SURFACE ( 'NONE', #234, 9.000000000000001776 ) ;
#136 = ORIENTED_EDGE ( 'NONE', *, *, #21, .F. ) ;
#137 = MECHANICAL_CONTEXT ( 'NONE', #180, 'mechanical' ) ;
#138 = DIRECTION ( 'NONE',  ( 1.000000000000000000, 0.000000000000000000, -0.000000000000000000 ) ) ;
#139 = VERTEX_POINT ( 'NONE', #1 ) ;
#140 = FACE_OUTER_BOUND ( 'NONE', #239, .T. ) ;
#141 = VECTOR ( 'NONE', #85, 1000.000000000000000 ) ;
#142 = CARTESIAN_POINT ( 'NONE',  ( 0.000000000000000000, 0.000000000000000000, 7.000000000000000000 ) ) ;
#143 = EDGE_CURVE ( 'NONE', #54, #236, #177, .T. ) ;
#144 = DIRECTION ( 'NONE',  ( 1.000000000000000000, 0.000000000000000000, 0.000000000000000000 ) ) ;
#145 = LINE ( 'NONE', #225, #141 ) ;
#146 = CALENDAR_DATE ( 2023, 12, 2 ) ;
#147 = DATE_AND_TIME ( #71, #65 ) ;
#148 = FACE_OUTER_BOUND ( 'NONE', #130, .T. ) ;
#149 = PERSON_AND_ORGANIZATION ( #128, #252 ) ;
#150 = ADVANCED_FACE ( 'NONE', ( #140 ), #171, .F. ) ;
#151 = VECTOR ( 'NONE', #238, 1000.000000000000000 ) ;
#152 = PRODUCT_DEFINITION ( 'NEZNÁMÝ', '', #198, #112 ) ;
#153 = DIRECTION ( 'NONE',  ( -1.000000000000000000, 0.000000000000000000, 0.000000000000000000 ) ) ;
#154 = AXIS2_PLACEMENT_3D ( 'NONE', #166, #100, #83 ) ;
#155 = ORIENTED_EDGE ( 'NONE', *, *, #143, .T. ) ;
#156 = DIRECTION ( 'NONE',  ( 1.000000000000000000, 0.000000000000000000, 0.000000000000000000 ) ) ;
#157 = ORIENTED_EDGE ( 'NONE', *, *, #72, .T. ) ;
#158 = EDGE_LOOP ( 'NONE', ( #39, #37 ) ) ;
#159 = LINE ( 'NONE', #174, #172 ) ;
#160 = CARTESIAN_POINT ( 'NONE',  ( 0.000000000000000000, 0.000000000000000000, 7.000000000000000000 ) ) ;
#161 = APPROVAL_DATE_TIME ( #182, #247 ) ;
#162 = AXIS2_PLACEMENT_3D ( 'NONE', #7, #68, #183 ) ;
#163 = CC_DESIGN_PERSON_AND_ORGANIZATION_ASSIGNMENT ( #124, #27, ( #198 ) ) ;
#164 = DIRECTION ( 'NONE',  ( -1.000000000000000000, 0.000000000000000000, 0.000000000000000000 ) ) ;
#165 = COORDINATED_UNIVERSAL_TIME_OFFSET ( 1, 0, .AHEAD. ) ;
#166 = CARTESIAN_POINT ( 'NONE',  ( 0.000000000000000000, 0.000000000000000000, 7.000000000000000000 ) ) ;
#167 = COORDINATED_UNIVERSAL_TIME_OFFSET ( 1, 0, .AHEAD. ) ;
#168 = APPROVAL_ROLE ( '' ) ;
#169 = AXIS2_PLACEMENT_3D ( 'NONE', #2, #120, #144 ) ;
#170 = LOCAL_TIME ( 11, 37, 8.000000000000000000, #106 ) ;
#171 = PLANE ( 'NONE',  #50 ) ;
#172 = VECTOR ( 'NONE', #196, 1000.000000000000000 ) ;
#173 = ORIENTED_EDGE ( 'NONE', *, *, #67, .F. ) ;
#174 = CARTESIAN_POINT ( 'NONE',  ( 9.000000000000001776, 1.102182119232617911E-15, 500.0000000000000000 ) ) ;
#175 = ORIENTED_EDGE ( 'NONE', *, *, #21, .T. ) ;
#176 = ADVANCED_FACE ( 'NONE', ( #45 ), #103, .T. ) ;
#177 = CIRCLE ( 'NONE', #13, 12.00000000000000178 ) ;
#178 = DIRECTION ( 'NONE',  ( -1.000000000000000000, 0.000000000000000000, 0.000000000000000000 ) ) ;
#179 = ORIENTED_EDGE ( 'NONE', *, *, #184, .T. ) ;
#180 = APPLICATION_CONTEXT ( 'configuration controlled 3d designs of mechanical parts and assemblies' ) ;
#181 = CYLINDRICAL_SURFACE ( 'NONE', #108, 9.000000000000001776 ) ;
#182 = DATE_AND_TIME ( #86, #227 ) ;
#183 = DIRECTION ( 'NONE',  ( 1.000000000000000000, 0.000000000000000000, -0.000000000000000000 ) ) ;
#184 = EDGE_CURVE ( 'NONE', #236, #54, #191, .T. ) ;
#185 = PERSON_AND_ORGANIZATION ( #128, #252 ) ;
#186 = CYLINDRICAL_SURFACE ( 'NONE', #233, 12.00000000000000178 ) ;
#187 = DATE_AND_TIME ( #30, #90 ) ;
#188 = APPROVAL ( #206, 'NEURÈENÝ' ) ;
#189 = APPLICATION_PROTOCOL_DEFINITION ( 'international standard', 'config_control_design', 1994, #11 ) ;
#190 = EDGE_CURVE ( 'NONE', #64, #3, #111, .T. ) ;
#191 = CIRCLE ( 'NONE', #127, 12.00000000000000178 ) ;
#192 = VECTOR ( 'NONE', #79, 1000.000000000000000 ) ;
#193 = CARTESIAN_POINT ( 'NONE',  ( 0.000000000000000000, 0.000000000000000000, 500.0000000000000000 ) ) ;
#194 = CARTESIAN_POINT ( 'NONE',  ( 0.000000000000000000, 0.000000000000000000, 7.000000000000000000 ) ) ;
#195 = CARTESIAN_POINT ( 'NONE',  ( -9.000000000000001776, 0.000000000000000000, 7.000000000000000000 ) ) ;
#196 = DIRECTION ( 'NONE',  ( -0.000000000000000000, -0.000000000000000000, -1.000000000000000000 ) ) ;
#197 = ORIENTED_EDGE ( 'NONE', *, *, #122, .T. ) ;
#198 = PRODUCT_DEFINITION_FORMATION_WITH_SPECIFIED_SOURCE ( 'LIBOVOLNÝ', '', #96, .NOT_KNOWN. ) ;
#199 = DIRECTION ( 'NONE',  ( 0.000000000000000000, 0.000000000000000000, 1.000000000000000000 ) ) ;
#200 = ORIENTED_EDGE ( 'NONE', *, *, #190, .T. ) ;
#201 = EDGE_CURVE ( 'NONE', #3, #64, #110, .T. ) ;
#202 = APPROVAL_DATE_TIME ( #147, #188 ) ;
#203 = DATE_AND_TIME ( #146, #170 ) ;
#204 = CYLINDRICAL_SURFACE ( 'NONE', #154, 12.00000000000000178 ) ;
#205 = CC_DESIGN_DATE_AND_TIME_ASSIGNMENT ( #121, #92, ( #74 ) ) ;
#206 = APPROVAL_STATUS ( 'not_yet_approved' ) ;
#207 = DIRECTION ( 'NONE',  ( 0.000000000000000000, 0.000000000000000000, 1.000000000000000000 ) ) ;
#208 = PERSON_AND_ORGANIZATION_ROLE ( 'creator' ) ;
#209 = CC_DESIGN_PERSON_AND_ORGANIZATION_ASSIGNMENT ( #102, #215, ( #96 ) ) ;
#210 =( NAMED_UNIT ( * ) SI_UNIT ( $, .STERADIAN. ) SOLID_ANGLE_UNIT ( ) );
#211 = APPROVAL_PERSON_ORGANIZATION ( #26, #94, #168 ) ;
#212 = CC_DESIGN_SECURITY_CLASSIFICATION ( #74, ( #198 ) ) ;
#213 = LINE ( 'NONE', #216, #151 ) ;
#214 = ORIENTED_EDGE ( 'NONE', *, *, #99, .T. ) ;
#215 = PERSON_AND_ORGANIZATION_ROLE ( 'design_owner' ) ;
#216 = CARTESIAN_POINT ( 'NONE',  ( -12.00000000000000178, 0.000000000000000000, 7.000000000000000000 ) ) ;
#217 = ORIENTED_EDGE ( 'NONE', *, *, #201, .F. ) ;
#218 = DIRECTION ( 'NONE',  ( 0.000000000000000000, 0.000000000000000000, 1.000000000000000000 ) ) ;
#219 = EDGE_LOOP ( 'NONE', ( #155, #179 ) ) ;
#220 = DIRECTION ( 'NONE',  ( 1.000000000000000000, 0.000000000000000000, 0.000000000000000000 ) ) ;
#221 = ADVANCED_FACE ( 'NONE', ( #123 ), #186, .T. ) ;
#222 = COORDINATED_UNIVERSAL_TIME_OFFSET ( 1, 0, .AHEAD. ) ;
#223 = DIRECTION ( 'NONE',  ( 0.000000000000000000, 0.000000000000000000, 1.000000000000000000 ) ) ;
#224 = APPROVAL_ROLE ( '' ) ;
#225 = CARTESIAN_POINT ( 'NONE',  ( 12.00000000000000178, 1.469576158976824144E-15, 7.000000000000000000 ) ) ;
#226 = ADVANCED_FACE ( 'NONE', ( #70 ), #204, .T. ) ;
#227 = LOCAL_TIME ( 11, 37, 8.000000000000000000, #73 ) ;
#228 = APPROVAL_PERSON_ORGANIZATION ( #149, #188, #224 ) ;
#229 = CC_DESIGN_PERSON_AND_ORGANIZATION_ASSIGNMENT ( #185, #91, ( #152 ) ) ;
#230 = CARTESIAN_POINT ( 'NONE',  ( 0.000000000000000000, 0.000000000000000000, 0.000000000000000000 ) ) ;
#231 = ORIENTED_EDGE ( 'NONE', *, *, #105, .F. ) ;
#232 = CARTESIAN_POINT ( 'NONE',  ( -12.00000000000000178, 0.000000000000000000, 7.000000000000000000 ) ) ;
#233 = AXIS2_PLACEMENT_3D ( 'NONE', #6, #88, #164 ) ;
#234 = AXIS2_PLACEMENT_3D ( 'NONE', #60, #77, #178 ) ;
#235 = FACE_OUTER_BOUND ( 'NONE', #25, .T. ) ;
#236 = VERTEX_POINT ( 'NONE', #244 ) ;
#237 = ORIENTED_EDGE ( 'NONE', *, *, #190, .F. ) ;
#238 = DIRECTION ( 'NONE',  ( -0.000000000000000000, -0.000000000000000000, -1.000000000000000000 ) ) ;
#239 = EDGE_LOOP ( 'NONE', ( #231, #116 ) ) ;
#240 = CARTESIAN_POINT ( 'NONE',  ( 0.000000000000000000, 0.000000000000000000, 500.0000000000000000 ) ) ;
#241 = AXIS2_PLACEMENT_3D ( 'NONE', #17, #199, #220 ) ;
#242 = APPROVAL_STATUS ( 'not_yet_approved' ) ;
#243 = ADVANCED_FACE ( 'NONE', ( #148 ), #181, .T. ) ;
#244 = CARTESIAN_POINT ( 'NONE',  ( 12.00000000000000178, 1.469576158976824144E-15, 7.000000000000000000 ) ) ;
#245 = CALENDAR_DATE ( 2023, 12, 2 ) ;
#246 = PERSON_AND_ORGANIZATION ( #128, #252 ) ;
#247 = APPROVAL ( #242, 'NEURÈENÝ' ) ;
#248 = PRODUCT_DEFINITION_SHAPE ( 'NONE', 'NONE',  #152 ) ;
#249 = CLOSED_SHELL ( 'NONE', ( #243, #221, #226, #38, #150, #132, #176 ) ) ;
#250 = CARTESIAN_POINT ( 'NONE',  ( -9.000000000000001776, 0.000000000000000000, 500.0000000000000000 ) ) ;
#251 = LINE ( 'NONE', #250, #192 ) ;
#252 = ORGANIZATION ( 'NEURÈENÝ', 'NEURÈENÝ', '' ) ;
#253 = EDGE_LOOP ( 'NONE', ( #118, #175, #157, #173 ) ) ;
#254 = CIRCLE ( 'NONE', #75, 9.000000000000001776 ) ;
#255 = ORIENTED_EDGE ( 'NONE', *, *, #105, .T. ) ;
ENDSEC;
END-ISO-10303-21;
