ISO-10303-21;
HEADER;
FILE_DESCRIPTION (( 'STEP AP203' ),
    '1' );
FILE_NAME ('efb7.STEP',
    '2022-07-07T12:19:50',
    ( '' ),
    ( '' ),
    'SwSTEP 2.0',
    'SolidWorks 2019',
    '' );
FILE_SCHEMA (( 'CONFIG_CONTROL_DESIGN' ));
ENDSEC;

DATA;
#1 = ADVANCED_FACE ( 'NONE', ( #141 ), #164, .T. ) ;
#2 = ORIENTED_EDGE ( 'NONE', *, *, #255, .T. ) ;
#3 = CALENDAR_DATE ( 2022, 7, 7 ) ;
#4 = ORIENTED_EDGE ( 'NONE', *, *, #19, .T. ) ;
#5 = CARTESIAN_POINT ( 'NONE',  ( 0.000000000000000000, 0.000000000000000000, 132.0000000000000000 ) ) ;
#6 = EDGE_LOOP ( 'NONE', ( #23, #2, #156, #281 ) ) ;
#7 = CARTESIAN_POINT ( 'NONE',  ( -12.00000000000000178, 0.000000000000000000, 7.000000000000000000 ) ) ;
#8 = DIRECTION ( 'NONE',  ( 1.000000000000000000, 0.000000000000000000, 0.000000000000000000 ) ) ;
#9 = CARTESIAN_POINT ( 'NONE',  ( 9.199999999999999289, 0.000000000000000000, 7.199999999999998401 ) ) ;
#10 = ADVANCED_FACE ( 'NONE', ( #89, #251 ), #44, .T. ) ;
#11 = AXIS2_PLACEMENT_3D ( 'NONE', #49, #77, #169 ) ;
#12 = FACE_OUTER_BOUND ( 'NONE', #165, .T. ) ;
#13 = ORGANIZATION ( 'NEURÈENÝ', 'NEURÈENÝ', '' ) ;
#14 = APPROVAL_STATUS ( 'not_yet_approved' ) ;
#15 = VERTEX_POINT ( 'NONE', #134 ) ;
#16 = COORDINATED_UNIVERSAL_TIME_OFFSET ( 1, 0, .AHEAD. ) ;
#17 = LOCAL_TIME ( 14, 19, 50.00000000000000000, #16 ) ;
#18 = APPROVAL_ROLE ( '' ) ;
#19 = EDGE_CURVE ( 'NONE', #160, #45, #53, .T. ) ;
#20 = ORIENTED_EDGE ( 'NONE', *, *, #80, .T. ) ;
#21 = ORIENTED_EDGE ( 'NONE', *, *, #105, .T. ) ;
#22 = ORIENTED_EDGE ( 'NONE', *, *, #51, .F. ) ;
#23 = ORIENTED_EDGE ( 'NONE', *, *, #133, .F. ) ;
#24 = CLOSED_SHELL ( 'NONE', ( #114, #1, #63, #245, #10, #188, #30, #148, #214 ) ) ;
#25 = DIRECTION ( 'NONE',  ( 1.000000000000000000, 0.000000000000000000, 0.000000000000000000 ) ) ;
#26 = LOCAL_TIME ( 14, 19, 50.00000000000000000, #127 ) ;
#27 = CARTESIAN_POINT ( 'NONE',  ( 0.000000000000000000, 0.000000000000000000, 7.000000000000000000 ) ) ;
#28 = EDGE_CURVE ( 'NONE', #60, #235, #269, .T. ) ;
#29 = CARTESIAN_POINT ( 'NONE',  ( 12.00000000000000178, 1.469576158976824144E-15, 7.000000000000000000 ) ) ;
#30 = ADVANCED_FACE ( 'NONE', ( #181 ), #66, .T. ) ;
#31 = AXIS2_PLACEMENT_3D ( 'NONE', #196, #273, #295 ) ;
#32 = FACE_OUTER_BOUND ( 'NONE', #93, .T. ) ;
#33 = CARTESIAN_POINT ( 'NONE',  ( 0.000000000000000000, 0.000000000000000000, 7.000000000000000000 ) ) ;
#34 = PLANE ( 'NONE',  #11 ) ;
#35 = DATE_AND_TIME ( #225, #159 ) ;
#36 = PERSON_AND_ORGANIZATION_ROLE ( 'creator' ) ;
#37 = PERSON_AND_ORGANIZATION_ROLE ( 'classification_officer' ) ;
#38 = MECHANICAL_CONTEXT ( 'NONE', #75, 'mechanical' ) ;
#39 = APPROVAL ( #14, 'NEURÈENÝ' ) ;
#40 = AXIS2_PLACEMENT_3D ( 'NONE', #121, #78, #195 ) ;
#41 = VECTOR ( 'NONE', #223, 1000.000000000000000 ) ;
#42 = DIRECTION ( 'NONE',  ( 1.000000000000000000, 0.000000000000000000, -0.000000000000000000 ) ) ;
#43 = ORIENTED_EDGE ( 'NONE', *, *, #179, .T. ) ;
#44 = PLANE ( 'NONE',  #276 ) ;
#45 = VERTEX_POINT ( 'NONE', #116 ) ;
#46 = DATE_AND_TIME ( #257, #69 ) ;
#47 = DIRECTION ( 'NONE',  ( 0.000000000000000000, 0.000000000000000000, 1.000000000000000000 ) ) ;
#48 = CC_DESIGN_APPROVAL ( #39, ( #191 ) ) ;
#49 = CARTESIAN_POINT ( 'NONE',  ( 0.000000000000000000, 0.000000000000000000, 0.000000000000000000 ) ) ;
#50 = CARTESIAN_POINT ( 'NONE',  ( 0.000000000000000000, 0.000000000000000000, 7.000000000000000000 ) ) ;
#51 = EDGE_CURVE ( 'NONE', #15, #274, #73, .T. ) ;
#52 = CARTESIAN_POINT ( 'NONE',  ( 0.000000000000000000, 0.000000000000000000, 132.0000000000000000 ) ) ;
#53 = CIRCLE ( 'NONE', #303, 0.2000000000000005107 ) ;
#54 = DIRECTION ( 'NONE',  ( -0.000000000000000000, -0.000000000000000000, -1.000000000000000000 ) ) ;
#55 = FACE_OUTER_BOUND ( 'NONE', #204, .T. ) ;
#56 = ORIENTED_EDGE ( 'NONE', *, *, #133, .T. ) ;
#57 = PRODUCT_DEFINITION_SHAPE ( 'NONE', 'NONE',  #139 ) ;
#58 = AXIS2_PLACEMENT_3D ( 'NONE', #33, #240, #190 ) ;
#59 = APPROVAL_DATE_TIME ( #270, #39 ) ;
#60 = VERTEX_POINT ( 'NONE', #90 ) ;
#61 = SECURITY_CLASSIFICATION_LEVEL ( 'unclassified' ) ;
#62 = ORIENTED_EDGE ( 'NONE', *, *, #28, .T. ) ;
#63 = ADVANCED_FACE ( 'NONE', ( #140 ), #231, .T. ) ;
#64 =( LENGTH_UNIT ( ) NAMED_UNIT ( * ) SI_UNIT ( .MILLI., .METRE. ) );
#65 = ORIENTED_EDGE ( 'NONE', *, *, #193, .T. ) ;
#66 = CYLINDRICAL_SURFACE ( 'NONE', #213, 9.000000000000000000 ) ;
#67 = CARTESIAN_POINT ( 'NONE',  ( -9.199999999999999289, 1.126675055215564822E-15, 7.199999999999998401 ) ) ;
#68 = AXIS2_PLACEMENT_3D ( 'NONE', #52, #189, #259 ) ;
#69 = LOCAL_TIME ( 14, 19, 50.00000000000000000, #183 ) ;
#70 = EDGE_LOOP ( 'NONE', ( #22, #247, #227, #95 ) ) ;
#71 = CC_DESIGN_PERSON_AND_ORGANIZATION_ASSIGNMENT ( #155, #37, ( #294 ) ) ;
#72 = DIRECTION ( 'NONE',  ( -1.000000000000000000, 0.000000000000000000, 0.000000000000000000 ) ) ;
#73 = CIRCLE ( 'NONE', #242, 9.000000000000000000 ) ;
#74 = DIRECTION ( 'NONE',  ( -0.000000000000000000, -0.000000000000000000, -1.000000000000000000 ) ) ;
#75 = APPLICATION_CONTEXT ( 'configuration controlled 3d designs of mechanical parts and assemblies' ) ;
#76 = DIRECTION ( 'NONE',  ( -0.000000000000000000, -0.000000000000000000, -1.000000000000000000 ) ) ;
#77 = DIRECTION ( 'NONE',  ( 0.000000000000000000, 0.000000000000000000, 1.000000000000000000 ) ) ;
#78 = DIRECTION ( 'NONE',  ( -0.000000000000000000, -0.000000000000000000, -1.000000000000000000 ) ) ;
#79 = CARTESIAN_POINT ( 'NONE',  ( -9.000000000000000000, 0.000000000000000000, 132.0000000000000000 ) ) ;
#80 = EDGE_CURVE ( 'NONE', #160, #87, #91, .T. ) ;
#81 = LINE ( 'NONE', #86, #41 ) ;
#82 = COORDINATED_UNIVERSAL_TIME_OFFSET ( 1, 0, .AHEAD. ) ;
#83 = DATE_TIME_ROLE ( 'creation_date' ) ;
#84 = ADVANCED_BREP_SHAPE_REPRESENTATION ( 'efb7', ( #131, #229 ), #266 ) ;
#85 = APPROVAL ( #153, 'NEURÈENÝ' ) ;
#86 = CARTESIAN_POINT ( 'NONE',  ( 9.000000000000000000, 1.102182119232617714E-15, 132.0000000000000000 ) ) ;
#87 = VERTEX_POINT ( 'NONE', #268 ) ;
#88 = ORIENTED_EDGE ( 'NONE', *, *, #302, .F. ) ;
#89 = FACE_BOUND ( 'NONE', #132, .T. ) ;
#90 = CARTESIAN_POINT ( 'NONE',  ( -12.00000000000000178, 0.000000000000000000, 0.000000000000000000 ) ) ;
#91 = CIRCLE ( 'NONE', #263, 9.000000000000000000 ) ;
#92 = DATE_AND_TIME ( #3, #26 ) ;
#93 = EDGE_LOOP ( 'NONE', ( #222, #107, #256, #62 ) ) ;
#94 = EDGE_CURVE ( 'NONE', #87, #226, #97, .T. ) ;
#95 = ORIENTED_EDGE ( 'NONE', *, *, #179, .F. ) ;
#96 = EDGE_LOOP ( 'NONE', ( #88, #152, #43, #20 ) ) ;
#97 = CIRCLE ( 'NONE', #135, 0.1999999999999996503 ) ;
#98 = DIRECTION ( 'NONE',  ( -0.000000000000000000, -0.000000000000000000, -1.000000000000000000 ) ) ;
#99 = APPROVAL_PERSON_ORGANIZATION ( #220, #39, #296 ) ;
#100 = CARTESIAN_POINT ( 'NONE',  ( 0.000000000000000000, 0.000000000000000000, 7.000000000000000000 ) ) ;
#101 = CARTESIAN_POINT ( 'NONE',  ( 9.199999999999999289, 0.000000000000000000, 6.999999999999999112 ) ) ;
#102 = CARTESIAN_POINT ( 'NONE',  ( 0.000000000000000000, 0.000000000000000000, 7.000000000000000000 ) ) ;
#103 = AXIS2_PLACEMENT_3D ( 'NONE', #217, #145, #216 ) ;
#104 = CARTESIAN_POINT ( 'NONE',  ( -9.000000000000000000, 0.000000000000000000, 132.0000000000000000 ) ) ;
#105 = EDGE_CURVE ( 'NONE', #274, #15, #110, .T. ) ;
#106 = AXIS2_PLACEMENT_3D ( 'NONE', #265, #260, #8 ) ;
#107 = ORIENTED_EDGE ( 'NONE', *, *, #162, .F. ) ;
#108 = PERSON_AND_ORGANIZATION_ROLE ( 'creator' ) ;
#109 = PRODUCT ( 'efb7', 'efb7', '', ( #38 ) ) ;
#110 = CIRCLE ( 'NONE', #262, 9.000000000000000000 ) ;
#111 = TOROIDAL_SURFACE ( 'NONE', #103, 9.199999999999999289, 0.2000000000000000111 ) ;
#112 = DIRECTION ( 'NONE',  ( -1.000000000000000000, 1.224646799147353207E-16, 0.000000000000000000 ) ) ;
#113 = DIRECTION ( 'NONE',  ( -0.000000000000000000, -0.000000000000000000, -1.000000000000000000 ) ) ;
#114 = ADVANCED_FACE ( 'NONE', ( #55 ), #200, .F. ) ;
#115 = DIRECTION ( 'NONE',  ( 1.224646799147353207E-16, 1.000000000000000000, -0.000000000000000000 ) ) ;
#116 = CARTESIAN_POINT ( 'NONE',  ( -9.199999999999999289, 1.126675055215564822E-15, 6.999999999999999112 ) ) ;
#117 = ORIENTED_EDGE ( 'NONE', *, *, #162, .T. ) ;
#118 = DIRECTION ( 'NONE',  ( 0.000000000000000000, 0.000000000000000000, 1.000000000000000000 ) ) ;
#119 = LINE ( 'NONE', #79, #238 ) ;
#120 = LOCAL_TIME ( 14, 19, 50.00000000000000000, #82 ) ;
#121 = CARTESIAN_POINT ( 'NONE',  ( 0.000000000000000000, 0.000000000000000000, 7.000000000000000000 ) ) ;
#122 = CC_DESIGN_PERSON_AND_ORGANIZATION_ASSIGNMENT ( #177, #300, ( #191 ) ) ;
#123 = FACE_OUTER_BOUND ( 'NONE', #285, .T. ) ;
#124 = CC_DESIGN_SECURITY_CLASSIFICATION ( #294, ( #191 ) ) ;
#125 = APPROVAL_DATE_TIME ( #35, #85 ) ;
#126 = PERSON_AND_ORGANIZATION ( #178, #13 ) ;
#127 = COORDINATED_UNIVERSAL_TIME_OFFSET ( 1, 0, .AHEAD. ) ;
#128 = CIRCLE ( 'NONE', #208, 12.00000000000000178 ) ;
#129 = PERSON_AND_ORGANIZATION_ROLE ( 'design_owner' ) ;
#130 = ORIENTED_EDGE ( 'NONE', *, *, #19, .F. ) ;
#131 = MANIFOLD_SOLID_BREP ( 'Zaoblit1', #24 ) ;
#132 = EDGE_LOOP ( 'NONE', ( #163, #65 ) ) ;
#133 = EDGE_CURVE ( 'NONE', #209, #253, #128, .T. ) ;
#134 = CARTESIAN_POINT ( 'NONE',  ( 9.000000000000000000, 1.102182119232617714E-15, 132.0000000000000000 ) ) ;
#135 = AXIS2_PLACEMENT_3D ( 'NONE', #9, #168, #149 ) ;
#136 = DESIGN_CONTEXT ( 'detailed design', #264, 'design' ) ;
#137 = APPROVAL_ROLE ( '' ) ;
#138 = DIRECTION ( 'NONE',  ( -1.000000000000000000, 0.000000000000000000, 0.000000000000000000 ) ) ;
#139 = PRODUCT_DEFINITION ( 'NEZNÁMÝ', '', #191, #136 ) ;
#140 = FACE_OUTER_BOUND ( 'NONE', #6, .T. ) ;
#141 = FACE_OUTER_BOUND ( 'NONE', #70, .T. ) ;
#142 = ORIENTED_EDGE ( 'NONE', *, *, #94, .F. ) ;
#143 = AXIS2_PLACEMENT_3D ( 'NONE', #289, #194, #291 ) ;
#144 = LINE ( 'NONE', #29, #184 ) ;
#145 = DIRECTION ( 'NONE',  ( 0.000000000000000000, 0.000000000000000000, 1.000000000000000000 ) ) ;
#146 = AXIS2_PLACEMENT_3D ( 'NONE', #207, #113, #307 ) ;
#147 = LINE ( 'NONE', #218, #283 ) ;
#148 = ADVANCED_FACE ( 'NONE', ( #12 ), #287, .T. ) ;
#149 = DIRECTION ( 'NONE',  ( 0.000000000000000000, 0.000000000000000000, -1.000000000000000000 ) ) ;
#150 = DIRECTION ( 'NONE',  ( 1.000000000000000000, 0.000000000000000000, 0.000000000000000000 ) ) ;
#151 = APPLICATION_PROTOCOL_DEFINITION ( 'international standard', 'config_control_design', 1994, #264 ) ;
#152 = ORIENTED_EDGE ( 'NONE', *, *, #105, .F. ) ;
#153 = APPROVAL_STATUS ( 'not_yet_approved' ) ;
#154 = ORIENTED_EDGE ( 'NONE', *, *, #80, .F. ) ;
#155 = PERSON_AND_ORGANIZATION ( #178, #13 ) ;
#156 = ORIENTED_EDGE ( 'NONE', *, *, #271, .T. ) ;
#157 = ORIENTED_EDGE ( 'NONE', *, *, #271, .F. ) ;
#158 = PRODUCT_RELATED_PRODUCT_CATEGORY ( 'detail', '', ( #109 ) ) ;
#159 = LOCAL_TIME ( 14, 19, 50.00000000000000000, #243 ) ;
#160 = VERTEX_POINT ( 'NONE', #261 ) ;
#161 = CARTESIAN_POINT ( 'NONE',  ( 0.000000000000000000, 0.000000000000000000, 132.0000000000000000 ) ) ;
#162 = EDGE_CURVE ( 'NONE', #253, #209, #248, .T. ) ;
#163 = ORIENTED_EDGE ( 'NONE', *, *, #202, .T. ) ;
#164 = CYLINDRICAL_SURFACE ( 'NONE', #146, 9.000000000000000000 ) ;
#165 = EDGE_LOOP ( 'NONE', ( #21, #304 ) ) ;
#166 = CYLINDRICAL_SURFACE ( 'NONE', #40, 12.00000000000000178 ) ;
#167 = AXIS2_PLACEMENT_3D ( 'NONE', #50, #76, #150 ) ;
#168 = DIRECTION ( 'NONE',  ( 0.000000000000000000, -1.000000000000000000, 0.000000000000000000 ) ) ;
#169 = DIRECTION ( 'NONE',  ( 1.000000000000000000, 0.000000000000000000, -0.000000000000000000 ) ) ;
#170 = CC_DESIGN_DATE_AND_TIME_ASSIGNMENT ( #221, #83, ( #139 ) ) ;
#171 = DIRECTION ( 'NONE',  ( 1.000000000000000000, 0.000000000000000000, 0.000000000000000000 ) ) ;
#172 = CIRCLE ( 'NONE', #167, 9.199999999999999289 ) ;
#173 = CC_DESIGN_APPROVAL ( #210, ( #294 ) ) ;
#174 = FACE_OUTER_BOUND ( 'NONE', #199, .T. ) ;
#175 =( NAMED_UNIT ( * ) PLANE_ANGLE_UNIT ( ) SI_UNIT ( $, .RADIAN. ) );
#176 = CALENDAR_DATE ( 2022, 7, 7 ) ;
#177 = PERSON_AND_ORGANIZATION ( #178, #13 ) ;
#178 = PERSON ( 'NEURÈENÝ', 'NEURÈENÝ', 'NEURÈENÝ', ('NEURÈENÝ'), ('NEURÈENÝ'), ('NEURÈENÝ') ) ;
#179 = EDGE_CURVE ( 'NONE', #274, #160, #119, .T. ) ;
#180 = PERSON_AND_ORGANIZATION ( #178, #13 ) ;
#181 = FACE_OUTER_BOUND ( 'NONE', #96, .T. ) ;
#182 = DIRECTION ( 'NONE',  ( 0.000000000000000000, 0.000000000000000000, 1.000000000000000000 ) ) ;
#183 = COORDINATED_UNIVERSAL_TIME_OFFSET ( 1, 0, .AHEAD. ) ;
#184 = VECTOR ( 'NONE', #98, 1000.000000000000000 ) ;
#185 = ORIENTED_EDGE ( 'NONE', *, *, #193, .F. ) ;
#186 = DATE_TIME_ROLE ( 'classification_date' ) ;
#187 = CARTESIAN_POINT ( 'NONE',  ( 0.000000000000000000, 0.000000000000000000, 7.000000000000000000 ) ) ;
#188 = ADVANCED_FACE ( 'NONE', ( #174 ), #34, .F. ) ;
#189 = DIRECTION ( 'NONE',  ( 0.000000000000000000, 0.000000000000000000, 1.000000000000000000 ) ) ;
#190 = DIRECTION ( 'NONE',  ( 1.000000000000000000, 0.000000000000000000, 0.000000000000000000 ) ) ;
#191 = PRODUCT_DEFINITION_FORMATION_WITH_SPECIFIED_SOURCE ( 'LIBOVOLNÝ', '', #109, .NOT_KNOWN. ) ;
#192 = DIRECTION ( 'NONE',  ( 1.000000000000000000, 0.000000000000000000, 0.000000000000000000 ) ) ;
#193 = EDGE_CURVE ( 'NONE', #45, #226, #172, .T. ) ;
#194 = DIRECTION ( 'NONE',  ( 0.000000000000000000, 0.000000000000000000, 1.000000000000000000 ) ) ;
#195 = DIRECTION ( 'NONE',  ( -1.000000000000000000, 0.000000000000000000, 0.000000000000000000 ) ) ;
#196 = CARTESIAN_POINT ( 'NONE',  ( 0.000000000000000000, 0.000000000000000000, 7.199999999999998401 ) ) ;
#197 = DIRECTION ( 'NONE',  ( 0.000000000000000000, 0.000000000000000000, 1.000000000000000000 ) ) ;
#198 = PERSON_AND_ORGANIZATION ( #178, #13 ) ;
#199 = EDGE_LOOP ( 'NONE', ( #246, #157 ) ) ;
#200 = TOROIDAL_SURFACE ( 'NONE', #106, 9.199999999999999289, 0.2000000000000000111 ) ;
#201 = CARTESIAN_POINT ( 'NONE',  ( 0.000000000000000000, 0.000000000000000000, 0.000000000000000000 ) ) ;
#202 = EDGE_CURVE ( 'NONE', #226, #45, #234, .T. ) ;
#203 = CALENDAR_DATE ( 2022, 7, 7 ) ;
#204 = EDGE_LOOP ( 'NONE', ( #154, #4, #233, #142 ) ) ;
#205 = DIRECTION ( 'NONE',  ( 0.000000000000000000, 0.000000000000000000, 1.000000000000000000 ) ) ;
#206 = DIRECTION ( 'NONE',  ( -0.000000000000000000, -0.000000000000000000, -1.000000000000000000 ) ) ;
#207 = CARTESIAN_POINT ( 'NONE',  ( 0.000000000000000000, 0.000000000000000000, 132.0000000000000000 ) ) ;
#208 = AXIS2_PLACEMENT_3D ( 'NONE', #102, #118, #239 ) ;
#209 = VERTEX_POINT ( 'NONE', #290 ) ;
#210 = APPROVAL ( #250, 'NEURÈENÝ' ) ;
#211 = EDGE_LOOP ( 'NONE', ( #117, #56 ) ) ;
#212 = DIRECTION ( 'NONE',  ( 0.000000000000000000, 0.000000000000000000, 1.000000000000000000 ) ) ;
#213 = AXIS2_PLACEMENT_3D ( 'NONE', #161, #206, #138 ) ;
#214 = ADVANCED_FACE ( 'NONE', ( #123 ), #111, .F. ) ;
#215 = CARTESIAN_POINT ( 'NONE',  ( 0.000000000000000000, 0.000000000000000000, 132.0000000000000000 ) ) ;
#216 = DIRECTION ( 'NONE',  ( 1.000000000000000000, 0.000000000000000000, 0.000000000000000000 ) ) ;
#217 = CARTESIAN_POINT ( 'NONE',  ( 0.000000000000000000, 0.000000000000000000, 7.199999999999998401 ) ) ;
#218 = CARTESIAN_POINT ( 'NONE',  ( -12.00000000000000178, 0.000000000000000000, 7.000000000000000000 ) ) ;
#219 = CIRCLE ( 'NONE', #31, 9.000000000000000000 ) ;
#220 = PERSON_AND_ORGANIZATION ( #178, #13 ) ;
#221 = DATE_AND_TIME ( #203, #17 ) ;
#222 = ORIENTED_EDGE ( 'NONE', *, *, #255, .F. ) ;
#223 = DIRECTION ( 'NONE',  ( -0.000000000000000000, -0.000000000000000000, -1.000000000000000000 ) ) ;
#224 = CC_DESIGN_PERSON_AND_ORGANIZATION_ASSIGNMENT ( #198, #108, ( #139 ) ) ;
#225 = CALENDAR_DATE ( 2022, 7, 7 ) ;
#226 = VERTEX_POINT ( 'NONE', #101 ) ;
#227 = ORIENTED_EDGE ( 'NONE', *, *, #282, .T. ) ;
#228 = AXIS2_PLACEMENT_3D ( 'NONE', #187, #286, #72 ) ;
#229 = AXIS2_PLACEMENT_3D ( 'NONE', #201, #197, #249 ) ;
#230 = DIRECTION ( 'NONE',  ( 0.000000000000000000, 0.000000000000000000, 1.000000000000000000 ) ) ;
#231 = CYLINDRICAL_SURFACE ( 'NONE', #228, 12.00000000000000178 ) ;
#232 = EDGE_CURVE ( 'NONE', #253, #60, #147, .T. ) ;
#233 = ORIENTED_EDGE ( 'NONE', *, *, #202, .F. ) ;
#234 = CIRCLE ( 'NONE', #58, 9.199999999999999289 ) ;
#235 = VERTEX_POINT ( 'NONE', #237 ) ;
#236 = DIRECTION ( 'NONE',  ( 1.000000000000000000, 0.000000000000000000, 0.000000000000000000 ) ) ;
#237 = CARTESIAN_POINT ( 'NONE',  ( 12.00000000000000178, 1.469576158976824144E-15, 0.000000000000000000 ) ) ;
#238 = VECTOR ( 'NONE', #54, 1000.000000000000000 ) ;
#239 = DIRECTION ( 'NONE',  ( 1.000000000000000000, 0.000000000000000000, 0.000000000000000000 ) ) ;
#240 = DIRECTION ( 'NONE',  ( -0.000000000000000000, -0.000000000000000000, -1.000000000000000000 ) ) ;
#241 = CC_DESIGN_PERSON_AND_ORGANIZATION_ASSIGNMENT ( #126, #129, ( #109 ) ) ;
#242 = AXIS2_PLACEMENT_3D ( 'NONE', #5, #230, #254 ) ;
#243 = COORDINATED_UNIVERSAL_TIME_OFFSET ( 1, 0, .AHEAD. ) ;
#244 = PERSON_AND_ORGANIZATION ( #178, #13 ) ;
#245 = ADVANCED_FACE ( 'NONE', ( #32 ), #166, .T. ) ;
#246 = ORIENTED_EDGE ( 'NONE', *, *, #28, .F. ) ;
#247 = ORIENTED_EDGE ( 'NONE', *, *, #302, .T. ) ;
#248 = CIRCLE ( 'NONE', #305, 12.00000000000000178 ) ;
#249 = DIRECTION ( 'NONE',  ( 1.000000000000000000, 0.000000000000000000, 0.000000000000000000 ) ) ;
#250 = APPROVAL_STATUS ( 'not_yet_approved' ) ;
#251 = FACE_OUTER_BOUND ( 'NONE', #211, .T. ) ;
#252 = UNCERTAINTY_MEASURE_WITH_UNIT (LENGTH_MEASURE( 1.000000000000000082E-05 ), #64, 'distance_accuracy_value', 'NONE');
#253 = VERTEX_POINT ( 'NONE', #7 ) ;
#254 = DIRECTION ( 'NONE',  ( 1.000000000000000000, 0.000000000000000000, 0.000000000000000000 ) ) ;
#255 = EDGE_CURVE ( 'NONE', #209, #235, #144, .T. ) ;
#256 = ORIENTED_EDGE ( 'NONE', *, *, #232, .T. ) ;
#257 = CALENDAR_DATE ( 2022, 7, 7 ) ;
#258 = CARTESIAN_POINT ( 'NONE',  ( 0.000000000000000000, 0.000000000000000000, 7.199999999999998401 ) ) ;
#259 = DIRECTION ( 'NONE',  ( 1.000000000000000000, 0.000000000000000000, -0.000000000000000000 ) ) ;
#260 = DIRECTION ( 'NONE',  ( 0.000000000000000000, 0.000000000000000000, 1.000000000000000000 ) ) ;
#261 = CARTESIAN_POINT ( 'NONE',  ( -9.000000000000000000, 0.000000000000000000, 7.199999999999998401 ) ) ;
#262 = AXIS2_PLACEMENT_3D ( 'NONE', #215, #293, #171 ) ;
#263 = AXIS2_PLACEMENT_3D ( 'NONE', #258, #47, #236 ) ;
#264 = APPLICATION_CONTEXT ( 'configuration controlled 3d designs of mechanical parts and assemblies' ) ;
#265 = CARTESIAN_POINT ( 'NONE',  ( 0.000000000000000000, 0.000000000000000000, 7.199999999999998401 ) ) ;
#266 =( GEOMETRIC_REPRESENTATION_CONTEXT ( 3 ) GLOBAL_UNCERTAINTY_ASSIGNED_CONTEXT ( ( #252 ) ) GLOBAL_UNIT_ASSIGNED_CONTEXT ( ( #64, #175, #275 ) ) REPRESENTATION_CONTEXT ( 'NONE', 'WORKASPACE' ) );
#267 = CC_DESIGN_DATE_AND_TIME_ASSIGNMENT ( #92, #186, ( #294 ) ) ;
#268 = CARTESIAN_POINT ( 'NONE',  ( 9.000000000000000000, 1.102182119232617714E-15, 7.199999999999998401 ) ) ;
#269 = CIRCLE ( 'NONE', #297, 12.00000000000000178 ) ;
#270 = DATE_AND_TIME ( #176, #120 ) ;
#271 = EDGE_CURVE ( 'NONE', #235, #60, #277, .T. ) ;
#272 = CC_DESIGN_APPROVAL ( #85, ( #139 ) ) ;
#273 = DIRECTION ( 'NONE',  ( 0.000000000000000000, 0.000000000000000000, 1.000000000000000000 ) ) ;
#274 = VERTEX_POINT ( 'NONE', #104 ) ;
#275 =( NAMED_UNIT ( * ) SI_UNIT ( $, .STERADIAN. ) SOLID_ANGLE_UNIT ( ) );
#276 = AXIS2_PLACEMENT_3D ( 'NONE', #27, #182, #42 ) ;
#277 = CIRCLE ( 'NONE', #143, 12.00000000000000178 ) ;
#278 = ORIENTED_EDGE ( 'NONE', *, *, #94, .T. ) ;
#279 = PERSON_AND_ORGANIZATION ( #178, #13 ) ;
#280 = CARTESIAN_POINT ( 'NONE',  ( 0.000000000000000000, 0.000000000000000000, 0.000000000000000000 ) ) ;
#281 = ORIENTED_EDGE ( 'NONE', *, *, #232, .F. ) ;
#282 = EDGE_CURVE ( 'NONE', #87, #160, #219, .T. ) ;
#283 = VECTOR ( 'NONE', #74, 1000.000000000000000 ) ;
#284 = SHAPE_DEFINITION_REPRESENTATION ( #57, #84 ) ;
#285 = EDGE_LOOP ( 'NONE', ( #130, #301, #278, #185 ) ) ;
#286 = DIRECTION ( 'NONE',  ( -0.000000000000000000, -0.000000000000000000, -1.000000000000000000 ) ) ;
#287 = PLANE ( 'NONE',  #68 ) ;
#288 = APPROVAL_PERSON_ORGANIZATION ( #279, #210, #137 ) ;
#289 = CARTESIAN_POINT ( 'NONE',  ( 0.000000000000000000, 0.000000000000000000, 0.000000000000000000 ) ) ;
#290 = CARTESIAN_POINT ( 'NONE',  ( 12.00000000000000178, 1.469576158976824144E-15, 7.000000000000000000 ) ) ;
#291 = DIRECTION ( 'NONE',  ( 1.000000000000000000, 0.000000000000000000, 0.000000000000000000 ) ) ;
#292 = CC_DESIGN_PERSON_AND_ORGANIZATION_ASSIGNMENT ( #244, #36, ( #191 ) ) ;
#293 = DIRECTION ( 'NONE',  ( 0.000000000000000000, 0.000000000000000000, 1.000000000000000000 ) ) ;
#294 = SECURITY_CLASSIFICATION ( '', '', #61 ) ;
#295 = DIRECTION ( 'NONE',  ( 1.000000000000000000, 0.000000000000000000, 0.000000000000000000 ) ) ;
#296 = APPROVAL_ROLE ( '' ) ;
#297 = AXIS2_PLACEMENT_3D ( 'NONE', #280, #205, #25 ) ;
#298 = APPLICATION_PROTOCOL_DEFINITION ( 'international standard', 'config_control_design', 1994, #75 ) ;
#299 = APPROVAL_PERSON_ORGANIZATION ( #180, #85, #18 ) ;
#300 = PERSON_AND_ORGANIZATION_ROLE ( 'design_supplier' ) ;
#301 = ORIENTED_EDGE ( 'NONE', *, *, #282, .F. ) ;
#302 = EDGE_CURVE ( 'NONE', #15, #87, #81, .T. ) ;
#303 = AXIS2_PLACEMENT_3D ( 'NONE', #67, #115, #112 ) ;
#304 = ORIENTED_EDGE ( 'NONE', *, *, #51, .T. ) ;
#305 = AXIS2_PLACEMENT_3D ( 'NONE', #100, #212, #192 ) ;
#306 = APPROVAL_DATE_TIME ( #46, #210 ) ;
#307 = DIRECTION ( 'NONE',  ( -1.000000000000000000, 0.000000000000000000, 0.000000000000000000 ) ) ;
ENDSEC;
END-ISO-10303-21;
