ISO-10303-21;
HEADER;
FILE_DESCRIPTION (( 'STEP AP203' ),
    '1' );
FILE_NAME ('c9cf.STEP',
    '2023-02-12T11:00:52',
    ( '' ),
    ( '' ),
    'SwSTEP 2.0',
    'SolidWorks 2019',
    '' );
FILE_SCHEMA (( 'CONFIG_CONTROL_DESIGN' ));
ENDSEC;

DATA;
#1 = CARTESIAN_POINT ( 'NONE',  ( 0.000000000000000000, 0.000000000000000000, 5.000000000000000000 ) ) ;
#2 = LOCAL_TIME ( 12, 0, 52.00000000000000000, #91 ) ;
#3 = FACE_OUTER_BOUND ( 'NONE', #204, .T. ) ;
#4 = VERTEX_POINT ( 'NONE', #112 ) ;
#5 = ORIENTED_EDGE ( 'NONE', *, *, #14, .F. ) ;
#6 = DIRECTION ( 'NONE',  ( 1.000000000000000000, 0.000000000000000000, -0.000000000000000000 ) ) ;
#7 = VERTEX_POINT ( 'NONE', #167 ) ;
#8 = ORIENTED_EDGE ( 'NONE', *, *, #30, .F. ) ;
#9 = CARTESIAN_POINT ( 'NONE',  ( -8.000000000000000000, 0.000000000000000000, 0.000000000000000000 ) ) ;
#10 = COORDINATED_UNIVERSAL_TIME_OFFSET ( 1, 0, .AHEAD. ) ;
#11 = DIRECTION ( 'NONE',  ( 1.000000000000000000, 0.000000000000000000, 0.000000000000000000 ) ) ;
#12 = CC_DESIGN_APPROVAL ( #248, ( #45 ) ) ;
#13 = CARTESIAN_POINT ( 'NONE',  ( 0.000000000000000000, 0.000000000000000000, 200.0000000000000000 ) ) ;
#14 = EDGE_CURVE ( 'NONE', #164, #202, #67, .T. ) ;
#15 = AXIS2_PLACEMENT_3D ( 'NONE', #26, #31, #52 ) ;
#16 = FACE_OUTER_BOUND ( 'NONE', #108, .T. ) ;
#17 = DIRECTION ( 'NONE',  ( 1.000000000000000000, 0.000000000000000000, 0.000000000000000000 ) ) ;
#18 = DIRECTION ( 'NONE',  ( -1.000000000000000000, 0.000000000000000000, 0.000000000000000000 ) ) ;
#19 = VECTOR ( 'NONE', #212, 1000.000000000000000 ) ;
#20 = ORIENTED_EDGE ( 'NONE', *, *, #89, .F. ) ;
#21 = ORIENTED_EDGE ( 'NONE', *, *, #152, .F. ) ;
#22 = DATE_AND_TIME ( #94, #166 ) ;
#23 = ORIENTED_EDGE ( 'NONE', *, *, #205, .T. ) ;
#24 = APPROVAL_STATUS ( 'not_yet_approved' ) ;
#25 = CC_DESIGN_PERSON_AND_ORGANIZATION_ASSIGNMENT ( #154, #29, ( #106 ) ) ;
#26 = CARTESIAN_POINT ( 'NONE',  ( 0.000000000000000000, 0.000000000000000000, 200.0000000000000000 ) ) ;
#27 = PERSON_AND_ORGANIZATION ( #82, #57 ) ;
#28 = FACE_OUTER_BOUND ( 'NONE', #86, .T. ) ;
#29 = PERSON_AND_ORGANIZATION_ROLE ( 'design_owner' ) ;
#30 = EDGE_CURVE ( 'NONE', #4, #225, #56, .T. ) ;
#31 = DIRECTION ( 'NONE',  ( -0.000000000000000000, -0.000000000000000000, -1.000000000000000000 ) ) ;
#32 = CARTESIAN_POINT ( 'NONE',  ( 8.000000000000000000, 9.797174393178825657E-16, 5.000000000000000000 ) ) ;
#33 = PRODUCT_DEFINITION_SHAPE ( 'NONE', 'NONE',  #45 ) ;
#34 = CIRCLE ( 'NONE', #180, 8.000000000000000000 ) ;
#35 = CARTESIAN_POINT ( 'NONE',  ( 0.000000000000000000, 0.000000000000000000, 5.000000000000000000 ) ) ;
#36 = DATE_AND_TIME ( #175, #245 ) ;
#37 = CYLINDRICAL_SURFACE ( 'NONE', #128, 8.000000000000000000 ) ;
#38 = CC_DESIGN_DATE_AND_TIME_ASSIGNMENT ( #139, #117, ( #45 ) ) ;
#39 = ORIENTED_EDGE ( 'NONE', *, *, #192, .T. ) ;
#40 = ORIENTED_EDGE ( 'NONE', *, *, #174, .T. ) ;
#41 = ORIENTED_EDGE ( 'NONE', *, *, #182, .F. ) ;
#42 = CC_DESIGN_PERSON_AND_ORGANIZATION_ASSIGNMENT ( #249, #149, ( #74 ) ) ;
#43 = CIRCLE ( 'NONE', #124, 8.000000000000000000 ) ;
#44 = ORIENTED_EDGE ( 'NONE', *, *, #226, .T. ) ;
#45 = PRODUCT_DEFINITION ( 'NEZNÁMÝ', '', #74, #161 ) ;
#46 = APPROVAL_ROLE ( '' ) ;
#47 = AXIS2_PLACEMENT_3D ( 'NONE', #59, #144, #18 ) ;
#48 = ORIENTED_EDGE ( 'NONE', *, *, #152, .T. ) ;
#49 = DIRECTION ( 'NONE',  ( 1.000000000000000000, 0.000000000000000000, 0.000000000000000000 ) ) ;
#50 = LINE ( 'NONE', #133, #132 ) ;
#51 = APPROVAL_STATUS ( 'not_yet_approved' ) ;
#52 = DIRECTION ( 'NONE',  ( -1.000000000000000000, 0.000000000000000000, 0.000000000000000000 ) ) ;
#53 = PRODUCT_RELATED_PRODUCT_CATEGORY ( 'detail', '', ( #106 ) ) ;
#54 = AXIS2_PLACEMENT_3D ( 'NONE', #251, #171, #49 ) ;
#55 = DIRECTION ( 'NONE',  ( 1.000000000000000000, 0.000000000000000000, 0.000000000000000000 ) ) ;
#56 = CIRCLE ( 'NONE', #201, 8.000000000000000000 ) ;
#57 = ORGANIZATION ( 'NEURÈENÝ', 'NEURÈENÝ', '' ) ;
#58 = CARTESIAN_POINT ( 'NONE',  ( 0.000000000000000000, 0.000000000000000000, 5.000000000000000000 ) ) ;
#59 = CARTESIAN_POINT ( 'NONE',  ( 0.000000000000000000, 0.000000000000000000, 200.0000000000000000 ) ) ;
#60 = DIRECTION ( 'NONE',  ( 1.000000000000000000, 0.000000000000000000, 0.000000000000000000 ) ) ;
#61 = ADVANCED_FACE ( 'NONE', ( #140 ), #238, .T. ) ;
#62 = ORIENTED_EDGE ( 'NONE', *, *, #158, .T. ) ;
#63 = ADVANCED_FACE ( 'NONE', ( #3 ), #37, .T. ) ;
#64 = UNCERTAINTY_MEASURE_WITH_UNIT (LENGTH_MEASURE( 1.000000000000000082E-05 ), #153, 'distance_accuracy_value', 'NONE');
#65 = ORIENTED_EDGE ( 'NONE', *, *, #192, .F. ) ;
#66 = APPROVAL ( #51, 'NEURÈENÝ' ) ;
#67 = CIRCLE ( 'NONE', #169, 5.000000000000000000 ) ;
#68 = VERTEX_POINT ( 'NONE', #32 ) ;
#69 = PERSON_AND_ORGANIZATION ( #82, #57 ) ;
#70 = CIRCLE ( 'NONE', #220, 8.000000000000000000 ) ;
#71 = COORDINATED_UNIVERSAL_TIME_OFFSET ( 1, 0, .AHEAD. ) ;
#72 = DIRECTION ( 'NONE',  ( -0.000000000000000000, -0.000000000000000000, -1.000000000000000000 ) ) ;
#73 = DIRECTION ( 'NONE',  ( 0.000000000000000000, 0.000000000000000000, 1.000000000000000000 ) ) ;
#74 = PRODUCT_DEFINITION_FORMATION_WITH_SPECIFIED_SOURCE ( 'LIBOVOLNÝ', '', #106, .NOT_KNOWN. ) ;
#75 = LINE ( 'NONE', #177, #172 ) ;
#76 = DIRECTION ( 'NONE',  ( 0.000000000000000000, 0.000000000000000000, 1.000000000000000000 ) ) ;
#77 = CARTESIAN_POINT ( 'NONE',  ( 0.000000000000000000, 0.000000000000000000, 0.000000000000000000 ) ) ;
#78 = APPROVAL_PERSON_ORGANIZATION ( #69, #248, #190 ) ;
#79 = FACE_BOUND ( 'NONE', #122, .T. ) ;
#80 = APPROVAL_PERSON_ORGANIZATION ( #191, #66, #155 ) ;
#81 = DIRECTION ( 'NONE',  ( 0.000000000000000000, 0.000000000000000000, 1.000000000000000000 ) ) ;
#82 = PERSON ( 'NEURÈENÝ', 'NEURÈENÝ', 'NEURÈENÝ', ('NEURÈENÝ'), ('NEURÈENÝ'), ('NEURÈENÝ') ) ;
#83 = DIRECTION ( 'NONE',  ( 0.000000000000000000, 0.000000000000000000, 1.000000000000000000 ) ) ;
#84 = LINE ( 'NONE', #217, #119 ) ;
#85 = ORIENTED_EDGE ( 'NONE', *, *, #158, .F. ) ;
#86 = EDGE_LOOP ( 'NONE', ( #127, #244, #23, #163 ) ) ;
#87 = AXIS2_PLACEMENT_3D ( 'NONE', #239, #223, #178 ) ;
#88 = CARTESIAN_POINT ( 'NONE',  ( 5.000000000000000000, 6.123233995736766282E-16, 5.000000000000000000 ) ) ;
#89 = EDGE_CURVE ( 'NONE', #68, #4, #75, .T. ) ;
#90 = APPROVAL_PERSON_ORGANIZATION ( #109, #168, #46 ) ;
#91 = COORDINATED_UNIVERSAL_TIME_OFFSET ( 1, 0, .AHEAD. ) ;
#92 = MECHANICAL_CONTEXT ( 'NONE', #135, 'mechanical' ) ;
#93 = CC_DESIGN_DATE_AND_TIME_ASSIGNMENT ( #22, #151, ( #183 ) ) ;
#94 = CALENDAR_DATE ( 2023, 12, 2 ) ;
#95 = ORIENTED_EDGE ( 'NONE', *, *, #205, .F. ) ;
#96 = DATE_AND_TIME ( #113, #134 ) ;
#97 = AXIS2_PLACEMENT_3D ( 'NONE', #58, #194, #143 ) ;
#98 = DIRECTION ( 'NONE',  ( 0.000000000000000000, 0.000000000000000000, 1.000000000000000000 ) ) ;
#99 = AXIS2_PLACEMENT_3D ( 'NONE', #107, #165, #6 ) ;
#100 = SHAPE_DEFINITION_REPRESENTATION ( #33, #145 ) ;
#101 = DIRECTION ( 'NONE',  ( -0.000000000000000000, -0.000000000000000000, -1.000000000000000000 ) ) ;
#102 = DIRECTION ( 'NONE',  ( -0.000000000000000000, -0.000000000000000000, -1.000000000000000000 ) ) ;
#103 = CC_DESIGN_PERSON_AND_ORGANIZATION_ASSIGNMENT ( #27, #185, ( #183 ) ) ;
#104 = CYLINDRICAL_SURFACE ( 'NONE', #87, 8.000000000000000000 ) ;
#105 = CARTESIAN_POINT ( 'NONE',  ( 0.000000000000000000, 0.000000000000000000, 200.0000000000000000 ) ) ;
#106 = PRODUCT ( 'c9cf', 'c9cf', '', ( #92 ) ) ;
#107 = CARTESIAN_POINT ( 'NONE',  ( 0.000000000000000000, 0.000000000000000000, 0.000000000000000000 ) ) ;
#108 = EDGE_LOOP ( 'NONE', ( #41, #150, #200, #85 ) ) ;
#109 = PERSON_AND_ORGANIZATION ( #82, #57 ) ;
#110 = ADVANCED_FACE ( 'NONE', ( #79, #159 ), #141, .T. ) ;
#111 = VERTEX_POINT ( 'NONE', #222 ) ;
#112 = CARTESIAN_POINT ( 'NONE',  ( 8.000000000000000000, 9.797174393178825657E-16, 0.000000000000000000 ) ) ;
#113 = CALENDAR_DATE ( 2023, 12, 2 ) ;
#114 = CYLINDRICAL_SURFACE ( 'NONE', #15, 5.000000000000000000 ) ;
#115 = PERSON_AND_ORGANIZATION_ROLE ( 'creator' ) ;
#116 = ADVANCED_FACE ( 'NONE', ( #199 ), #241, .T. ) ;
#117 = DATE_TIME_ROLE ( 'creation_date' ) ;
#118 = CARTESIAN_POINT ( 'NONE',  ( 0.000000000000000000, 0.000000000000000000, 0.000000000000000000 ) ) ;
#119 = VECTOR ( 'NONE', #101, 1000.000000000000000 ) ;
#120 = APPROVAL_DATE_TIME ( #36, #168 ) ;
#121 = DIRECTION ( 'NONE',  ( 1.000000000000000000, 0.000000000000000000, 0.000000000000000000 ) ) ;
#122 = EDGE_LOOP ( 'NONE', ( #5, #95 ) ) ;
#123 = DIRECTION ( 'NONE',  ( 0.000000000000000000, 0.000000000000000000, 1.000000000000000000 ) ) ;
#124 = AXIS2_PLACEMENT_3D ( 'NONE', #1, #81, #242 ) ;
#125 = EDGE_LOOP ( 'NONE', ( #176, #8 ) ) ;
#126 = ORIENTED_EDGE ( 'NONE', *, *, #216, .T. ) ;
#127 = ORIENTED_EDGE ( 'NONE', *, *, #216, .F. ) ;
#128 = AXIS2_PLACEMENT_3D ( 'NONE', #196, #102, #218 ) ;
#129 =( GEOMETRIC_REPRESENTATION_CONTEXT ( 3 ) GLOBAL_UNCERTAINTY_ASSIGNED_CONTEXT ( ( #64 ) ) GLOBAL_UNIT_ASSIGNED_CONTEXT ( ( #153, #233, #237 ) ) REPRESENTATION_CONTEXT ( 'NONE', 'WORKASPACE' ) );
#130 = COORDINATED_UNIVERSAL_TIME_OFFSET ( 1, 0, .AHEAD. ) ;
#131 = CIRCLE ( 'NONE', #230, 5.000000000000000000 ) ;
#132 = VECTOR ( 'NONE', #72, 1000.000000000000000 ) ;
#133 = CARTESIAN_POINT ( 'NONE',  ( -5.000000000000000000, 0.000000000000000000, 200.0000000000000000 ) ) ;
#134 = LOCAL_TIME ( 12, 0, 52.00000000000000000, #231 ) ;
#135 = APPLICATION_CONTEXT ( 'configuration controlled 3d designs of mechanical parts and assemblies' ) ;
#136 = CALENDAR_DATE ( 2023, 12, 2 ) ;
#137 = LINE ( 'NONE', #210, #19 ) ;
#138 = PERSON_AND_ORGANIZATION ( #82, #57 ) ;
#139 = DATE_AND_TIME ( #157, #189 ) ;
#140 = FACE_OUTER_BOUND ( 'NONE', #228, .T. ) ;
#141 = PLANE ( 'NONE',  #97 ) ;
#142 = CIRCLE ( 'NONE', #224, 5.000000000000000000 ) ;
#143 = DIRECTION ( 'NONE',  ( 1.000000000000000000, 0.000000000000000000, -0.000000000000000000 ) ) ;
#144 = DIRECTION ( 'NONE',  ( -0.000000000000000000, -0.000000000000000000, -1.000000000000000000 ) ) ;
#145 = ADVANCED_BREP_SHAPE_REPRESENTATION ( 'c9cf', ( #213, #198 ), #129 ) ;
#146 = AXIS2_PLACEMENT_3D ( 'NONE', #179, #73, #255 ) ;
#147 = CC_DESIGN_PERSON_AND_ORGANIZATION_ASSIGNMENT ( #234, #252, ( #45 ) ) ;
#148 = CC_DESIGN_APPROVAL ( #66, ( #74 ) ) ;
#149 = PERSON_AND_ORGANIZATION_ROLE ( 'design_supplier' ) ;
#150 = ORIENTED_EDGE ( 'NONE', *, *, #89, .T. ) ;
#151 = DATE_TIME_ROLE ( 'classification_date' ) ;
#152 = EDGE_CURVE ( 'NONE', #181, #7, #131, .T. ) ;
#153 =( LENGTH_UNIT ( ) NAMED_UNIT ( * ) SI_UNIT ( .MILLI., .METRE. ) );
#154 = PERSON_AND_ORGANIZATION ( #82, #57 ) ;
#155 = APPROVAL_ROLE ( '' ) ;
#156 = DIRECTION ( 'NONE',  ( 0.000000000000000000, 0.000000000000000000, 1.000000000000000000 ) ) ;
#157 = CALENDAR_DATE ( 2023, 12, 2 ) ;
#158 = EDGE_CURVE ( 'NONE', #111, #225, #84, .T. ) ;
#159 = FACE_OUTER_BOUND ( 'NONE', #247, .T. ) ;
#160 = APPLICATION_CONTEXT ( 'configuration controlled 3d designs of mechanical parts and assemblies' ) ;
#161 = DESIGN_CONTEXT ( 'detailed design', #160, 'design' ) ;
#162 = ORIENTED_EDGE ( 'NONE', *, *, #235, .F. ) ;
#163 = ORIENTED_EDGE ( 'NONE', *, *, #226, .F. ) ;
#164 = VERTEX_POINT ( 'NONE', #219 ) ;
#165 = DIRECTION ( 'NONE',  ( 0.000000000000000000, 0.000000000000000000, 1.000000000000000000 ) ) ;
#166 = LOCAL_TIME ( 12, 0, 52.00000000000000000, #10 ) ;
#167 = CARTESIAN_POINT ( 'NONE',  ( 5.000000000000000000, 6.123233995736766282E-16, 200.0000000000000000 ) ) ;
#168 = APPROVAL ( #214, 'NEURÈENÝ' ) ;
#169 = AXIS2_PLACEMENT_3D ( 'NONE', #209, #76, #55 ) ;
#170 = APPROVAL_DATE_TIME ( #232, #66 ) ;
#171 = DIRECTION ( 'NONE',  ( 0.000000000000000000, 0.000000000000000000, 1.000000000000000000 ) ) ;
#172 = VECTOR ( 'NONE', #193, 1000.000000000000000 ) ;
#173 = DIRECTION ( 'NONE',  ( 1.000000000000000000, 0.000000000000000000, 0.000000000000000000 ) ) ;
#174 = EDGE_CURVE ( 'NONE', #225, #4, #34, .T. ) ;
#175 = CALENDAR_DATE ( 2023, 12, 2 ) ;
#176 = ORIENTED_EDGE ( 'NONE', *, *, #174, .F. ) ;
#177 = CARTESIAN_POINT ( 'NONE',  ( 8.000000000000000000, 9.797174393178825657E-16, 5.000000000000000000 ) ) ;
#178 = DIRECTION ( 'NONE',  ( -1.000000000000000000, 0.000000000000000000, 0.000000000000000000 ) ) ;
#179 = CARTESIAN_POINT ( 'NONE',  ( 0.000000000000000000, 0.000000000000000000, 200.0000000000000000 ) ) ;
#180 = AXIS2_PLACEMENT_3D ( 'NONE', #77, #98, #17 ) ;
#181 = VERTEX_POINT ( 'NONE', #221 ) ;
#182 = EDGE_CURVE ( 'NONE', #68, #111, #70, .T. ) ;
#183 = SECURITY_CLASSIFICATION ( '', '', #211 ) ;
#184 = APPROVAL_DATE_TIME ( #96, #248 ) ;
#185 = PERSON_AND_ORGANIZATION_ROLE ( 'classification_officer' ) ;
#186 = CARTESIAN_POINT ( 'NONE',  ( 0.000000000000000000, 0.000000000000000000, 0.000000000000000000 ) ) ;
#187 = CIRCLE ( 'NONE', #54, 5.000000000000000000 ) ;
#188 = ADVANCED_FACE ( 'NONE', ( #16 ), #104, .T. ) ;
#189 = LOCAL_TIME ( 12, 0, 52.00000000000000000, #71 ) ;
#190 = APPROVAL_ROLE ( '' ) ;
#191 = PERSON_AND_ORGANIZATION ( #82, #57 ) ;
#192 = EDGE_CURVE ( 'NONE', #111, #68, #43, .T. ) ;
#193 = DIRECTION ( 'NONE',  ( -0.000000000000000000, -0.000000000000000000, -1.000000000000000000 ) ) ;
#194 = DIRECTION ( 'NONE',  ( 0.000000000000000000, 0.000000000000000000, 1.000000000000000000 ) ) ;
#195 = DIRECTION ( 'NONE',  ( 0.000000000000000000, 0.000000000000000000, 1.000000000000000000 ) ) ;
#196 = CARTESIAN_POINT ( 'NONE',  ( 0.000000000000000000, 0.000000000000000000, 5.000000000000000000 ) ) ;
#197 = ADVANCED_FACE ( 'NONE', ( #227 ), #246, .F. ) ;
#198 = AXIS2_PLACEMENT_3D ( 'NONE', #186, #208, #11 ) ;
#199 = FACE_OUTER_BOUND ( 'NONE', #206, .T. ) ;
#200 = ORIENTED_EDGE ( 'NONE', *, *, #30, .T. ) ;
#201 = AXIS2_PLACEMENT_3D ( 'NONE', #118, #123, #173 ) ;
#202 = VERTEX_POINT ( 'NONE', #88 ) ;
#203 = CC_DESIGN_PERSON_AND_ORGANIZATION_ASSIGNMENT ( #138, #115, ( #74 ) ) ;
#204 = EDGE_LOOP ( 'NONE', ( #20, #65, #62, #40 ) ) ;
#205 = EDGE_CURVE ( 'NONE', #202, #164, #187, .T. ) ;
#206 = EDGE_LOOP ( 'NONE', ( #162, #21, #44, #229 ) ) ;
#207 = ORIENTED_EDGE ( 'NONE', *, *, #182, .T. ) ;
#208 = DIRECTION ( 'NONE',  ( 0.000000000000000000, 0.000000000000000000, 1.000000000000000000 ) ) ;
#209 = CARTESIAN_POINT ( 'NONE',  ( 0.000000000000000000, 0.000000000000000000, 5.000000000000000000 ) ) ;
#210 = CARTESIAN_POINT ( 'NONE',  ( 5.000000000000000000, 6.123233995736766282E-16, 200.0000000000000000 ) ) ;
#211 = SECURITY_CLASSIFICATION_LEVEL ( 'unclassified' ) ;
#212 = DIRECTION ( 'NONE',  ( -0.000000000000000000, -0.000000000000000000, -1.000000000000000000 ) ) ;
#213 = MANIFOLD_SOLID_BREP ( 'Pøidat vysunutím3', #253 ) ;
#214 = APPROVAL_STATUS ( 'not_yet_approved' ) ;
#215 = APPLICATION_PROTOCOL_DEFINITION ( 'international standard', 'config_control_design', 1994, #160 ) ;
#216 = EDGE_CURVE ( 'NONE', #7, #181, #142, .T. ) ;
#217 = CARTESIAN_POINT ( 'NONE',  ( -8.000000000000000000, 0.000000000000000000, 5.000000000000000000 ) ) ;
#218 = DIRECTION ( 'NONE',  ( -1.000000000000000000, 0.000000000000000000, 0.000000000000000000 ) ) ;
#219 = CARTESIAN_POINT ( 'NONE',  ( -5.000000000000000000, 0.000000000000000000, 5.000000000000000000 ) ) ;
#220 = AXIS2_PLACEMENT_3D ( 'NONE', #35, #195, #121 ) ;
#221 = CARTESIAN_POINT ( 'NONE',  ( -5.000000000000000000, 0.000000000000000000, 200.0000000000000000 ) ) ;
#222 = CARTESIAN_POINT ( 'NONE',  ( -8.000000000000000000, 0.000000000000000000, 5.000000000000000000 ) ) ;
#223 = DIRECTION ( 'NONE',  ( -0.000000000000000000, -0.000000000000000000, -1.000000000000000000 ) ) ;
#224 = AXIS2_PLACEMENT_3D ( 'NONE', #13, #156, #254 ) ;
#225 = VERTEX_POINT ( 'NONE', #9 ) ;
#226 = EDGE_CURVE ( 'NONE', #181, #164, #50, .T. ) ;
#227 = FACE_OUTER_BOUND ( 'NONE', #125, .T. ) ;
#228 = EDGE_LOOP ( 'NONE', ( #48, #126 ) ) ;
#229 = ORIENTED_EDGE ( 'NONE', *, *, #14, .T. ) ;
#230 = AXIS2_PLACEMENT_3D ( 'NONE', #105, #83, #60 ) ;
#231 = COORDINATED_UNIVERSAL_TIME_OFFSET ( 1, 0, .AHEAD. ) ;
#232 = DATE_AND_TIME ( #136, #2 ) ;
#233 =( NAMED_UNIT ( * ) PLANE_ANGLE_UNIT ( ) SI_UNIT ( $, .RADIAN. ) );
#234 = PERSON_AND_ORGANIZATION ( #82, #57 ) ;
#235 = EDGE_CURVE ( 'NONE', #7, #202, #137, .T. ) ;
#236 = CC_DESIGN_SECURITY_CLASSIFICATION ( #183, ( #74 ) ) ;
#237 =( NAMED_UNIT ( * ) SI_UNIT ( $, .STERADIAN. ) SOLID_ANGLE_UNIT ( ) );
#238 = PLANE ( 'NONE',  #146 ) ;
#239 = CARTESIAN_POINT ( 'NONE',  ( 0.000000000000000000, 0.000000000000000000, 5.000000000000000000 ) ) ;
#240 = ADVANCED_FACE ( 'NONE', ( #28 ), #114, .T. ) ;
#241 = CYLINDRICAL_SURFACE ( 'NONE', #47, 5.000000000000000000 ) ;
#242 = DIRECTION ( 'NONE',  ( 1.000000000000000000, 0.000000000000000000, 0.000000000000000000 ) ) ;
#243 = CC_DESIGN_APPROVAL ( #168, ( #183 ) ) ;
#244 = ORIENTED_EDGE ( 'NONE', *, *, #235, .T. ) ;
#245 = LOCAL_TIME ( 12, 0, 52.00000000000000000, #130 ) ;
#246 = PLANE ( 'NONE',  #99 ) ;
#247 = EDGE_LOOP ( 'NONE', ( #39, #207 ) ) ;
#248 = APPROVAL ( #24, 'NEURÈENÝ' ) ;
#249 = PERSON_AND_ORGANIZATION ( #82, #57 ) ;
#250 = APPLICATION_PROTOCOL_DEFINITION ( 'international standard', 'config_control_design', 1994, #135 ) ;
#251 = CARTESIAN_POINT ( 'NONE',  ( 0.000000000000000000, 0.000000000000000000, 5.000000000000000000 ) ) ;
#252 = PERSON_AND_ORGANIZATION_ROLE ( 'creator' ) ;
#253 = CLOSED_SHELL ( 'NONE', ( #240, #188, #63, #110, #197, #116, #61 ) ) ;
#254 = DIRECTION ( 'NONE',  ( 1.000000000000000000, 0.000000000000000000, 0.000000000000000000 ) ) ;
#255 = DIRECTION ( 'NONE',  ( 1.000000000000000000, 0.000000000000000000, -0.000000000000000000 ) ) ;
ENDSEC;
END-ISO-10303-21;
