ISO-10303-21;
HEADER;
FILE_DESCRIPTION (( 'STEP AP203' ),
    '1' );
FILE_NAME ('1ba0.STEP',
    '2022-07-07T12:24:27',
    ( '' ),
    ( '' ),
    'SwSTEP 2.0',
    'SolidWorks 2019',
    '' );
FILE_SCHEMA (( 'CONFIG_CONTROL_DESIGN' ));
ENDSEC;

DATA;
#1 = ADVANCED_FACE ( 'NONE', ( #290 ), #194, .T. ) ;
#2 = DIRECTION ( 'NONE',  ( 1.000000000000000000, 0.000000000000000000, 0.000000000000000000 ) ) ;
#3 = AXIS2_PLACEMENT_3D ( 'NONE', #170, #265, #174 ) ;
#4 = DIRECTION ( 'NONE',  ( -0.000000000000000000, -0.000000000000000000, -1.000000000000000000 ) ) ;
#5 = VERTEX_POINT ( 'NONE', #244 ) ;
#6 = AXIS2_PLACEMENT_3D ( 'NONE', #26, #122, #2 ) ;
#7 = CARTESIAN_POINT ( 'NONE',  ( -8.000000000000000000, 0.000000000000000000, 5.000000000000000000 ) ) ;
#8 = ORIENTED_EDGE ( 'NONE', *, *, #53, .F. ) ;
#9 = DIRECTION ( 'NONE',  ( 1.000000000000000000, 0.000000000000000000, 0.000000000000000000 ) ) ;
#10 = ORIENTED_EDGE ( 'NONE', *, *, #215, .F. ) ;
#11 = CARTESIAN_POINT ( 'NONE',  ( 0.000000000000000000, 0.000000000000000000, 405.0000000000000000 ) ) ;
#12 = LOCAL_TIME ( 14, 24, 27.00000000000000000, #302 ) ;
#13 = DIRECTION ( 'NONE',  ( 1.000000000000000000, 0.000000000000000000, 0.000000000000000000 ) ) ;
#14 = PERSON_AND_ORGANIZATION ( #192, #198 ) ;
#15 = MANIFOLD_SOLID_BREP ( 'Zaoblit1', #126 ) ;
#16 = EDGE_CURVE ( 'NONE', #89, #239, #131, .T. ) ;
#17 = ADVANCED_BREP_SHAPE_REPRESENTATION ( '1ba0', ( #15, #134 ), #97 ) ;
#18 = CIRCLE ( 'NONE', #119, 5.500000000000000000 ) ;
#19 =( NAMED_UNIT ( * ) SI_UNIT ( $, .STERADIAN. ) SOLID_ANGLE_UNIT ( ) );
#20 = ADVANCED_FACE ( 'NONE', ( #76 ), #33, .F. ) ;
#21 = FACE_OUTER_BOUND ( 'NONE', #254, .T. ) ;
#22 = TOROIDAL_SURFACE ( 'NONE', #85, 5.699999999999999289, 0.2000000000000000111 ) ;
#23 = COORDINATED_UNIVERSAL_TIME_OFFSET ( 1, 0, .AHEAD. ) ;
#24 = CC_DESIGN_DATE_AND_TIME_ASSIGNMENT ( #283, #96, ( #299 ) ) ;
#25 = EDGE_CURVE ( 'NONE', #264, #217, #298, .T. ) ;
#26 = CARTESIAN_POINT ( 'NONE',  ( 0.000000000000000000, 0.000000000000000000, 5.000000000000000000 ) ) ;
#27 = DATE_TIME_ROLE ( 'creation_date' ) ;
#28 = AXIS2_PLACEMENT_3D ( 'NONE', #167, #271, #220 ) ;
#29 = LOCAL_TIME ( 14, 24, 27.00000000000000000, #23 ) ;
#30 = ORIENTED_EDGE ( 'NONE', *, *, #292, .T. ) ;
#31 = ORIENTED_EDGE ( 'NONE', *, *, #250, .F. ) ;
#32 = LINE ( 'NONE', #295, #219 ) ;
#33 = PLANE ( 'NONE',  #28 ) ;
#34 = AXIS2_PLACEMENT_3D ( 'NONE', #11, #185, #285 ) ;
#35 = DIRECTION ( 'NONE',  ( 1.000000000000000000, 0.000000000000000000, 0.000000000000000000 ) ) ;
#36 = EDGE_LOOP ( 'NONE', ( #177, #37 ) ) ;
#37 = ORIENTED_EDGE ( 'NONE', *, *, #225, .T. ) ;
#38 = DIRECTION ( 'NONE',  ( -0.000000000000000000, -0.000000000000000000, -1.000000000000000000 ) ) ;
#39 = APPROVAL ( #306, 'NEURÈENÝ' ) ;
#40 = CYLINDRICAL_SURFACE ( 'NONE', #159, 8.000000000000000000 ) ;
#41 = AXIS2_PLACEMENT_3D ( 'NONE', #123, #191, #289 ) ;
#42 = ADVANCED_FACE ( 'NONE', ( #55 ), #240, .T. ) ;
#43 = CARTESIAN_POINT ( 'NONE',  ( 8.000000000000000000, 9.797174393178825657E-16, 0.000000000000000000 ) ) ;
#44 = CARTESIAN_POINT ( 'NONE',  ( 0.000000000000000000, 0.000000000000000000, 0.000000000000000000 ) ) ;
#45 = APPLICATION_PROTOCOL_DEFINITION ( 'international standard', 'config_control_design', 1994, #288 ) ;
#46 = APPROVAL_STATUS ( 'not_yet_approved' ) ;
#47 = AXIS2_PLACEMENT_3D ( 'NONE', #216, #4, #78 ) ;
#48 = EDGE_CURVE ( 'NONE', #5, #105, #101, .T. ) ;
#49 = CARTESIAN_POINT ( 'NONE',  ( -5.500000000000000000, 0.000000000000000000, 405.0000000000000000 ) ) ;
#50 = DATE_AND_TIME ( #66, #12 ) ;
#51 = CC_DESIGN_PERSON_AND_ORGANIZATION_ASSIGNMENT ( #282, #71, ( #181 ) ) ;
#52 = DIRECTION ( 'NONE',  ( 1.224646799147353207E-16, 1.000000000000000000, -0.000000000000000000 ) ) ;
#53 = EDGE_CURVE ( 'NONE', #217, #264, #252, .T. ) ;
#54 = APPROVAL_PERSON_ORGANIZATION ( #139, #245, #121 ) ;
#55 = FACE_OUTER_BOUND ( 'NONE', #102, .T. ) ;
#56 = ORIENTED_EDGE ( 'NONE', *, *, #160, .T. ) ;
#57 = DIRECTION ( 'NONE',  ( 1.000000000000000000, 0.000000000000000000, 0.000000000000000000 ) ) ;
#58 = CARTESIAN_POINT ( 'NONE',  ( -5.699999999999999289, 6.980486755139912122E-16, 5.199999999999982414 ) ) ;
#59 = ORIENTED_EDGE ( 'NONE', *, *, #16, .F. ) ;
#60 = CIRCLE ( 'NONE', #72, 8.000000000000000000 ) ;
#61 = DIRECTION ( 'NONE',  ( -1.000000000000000000, 1.224646799147353454E-16, 0.000000000000000000 ) ) ;
#62 = MECHANICAL_CONTEXT ( 'NONE', #288, 'mechanical' ) ;
#63 = EDGE_CURVE ( 'NONE', #239, #89, #237, .T. ) ;
#64 = DIRECTION ( 'NONE',  ( -1.000000000000000000, 0.000000000000000000, 0.000000000000000000 ) ) ;
#65 = ORIENTED_EDGE ( 'NONE', *, *, #225, .F. ) ;
#66 = CALENDAR_DATE ( 2022, 7, 7 ) ;
#67 = CC_DESIGN_PERSON_AND_ORGANIZATION_ASSIGNMENT ( #208, #136, ( #299 ) ) ;
#68 = DIRECTION ( 'NONE',  ( 0.000000000000000000, 0.000000000000000000, -1.000000000000000000 ) ) ;
#69 = LINE ( 'NONE', #158, #224 ) ;
#70 = LOCAL_TIME ( 14, 24, 27.00000000000000000, #120 ) ;
#71 = PERSON_AND_ORGANIZATION_ROLE ( 'design_supplier' ) ;
#72 = AXIS2_PLACEMENT_3D ( 'NONE', #226, #92, #154 ) ;
#73 = CARTESIAN_POINT ( 'NONE',  ( -5.500000000000000000, 0.000000000000000000, 405.0000000000000000 ) ) ;
#74 = CALENDAR_DATE ( 2022, 7, 7 ) ;
#75 = CARTESIAN_POINT ( 'NONE',  ( 0.000000000000000000, 0.000000000000000000, 5.199999999999982414 ) ) ;
#76 = FACE_OUTER_BOUND ( 'NONE', #248, .T. ) ;
#77 = AXIS2_PLACEMENT_3D ( 'NONE', #193, #212, #108 ) ;
#78 = DIRECTION ( 'NONE',  ( -1.000000000000000000, 0.000000000000000000, 0.000000000000000000 ) ) ;
#79 = ORIENTED_EDGE ( 'NONE', *, *, #93, .T. ) ;
#80 = CARTESIAN_POINT ( 'NONE',  ( 0.000000000000000000, 0.000000000000000000, 5.000000000000000000 ) ) ;
#81 = CC_DESIGN_PERSON_AND_ORGANIZATION_ASSIGNMENT ( #211, #235, ( #181 ) ) ;
#82 = EDGE_LOOP ( 'NONE', ( #256, #222 ) ) ;
#83 = CARTESIAN_POINT ( 'NONE',  ( 0.000000000000000000, 0.000000000000000000, 0.000000000000000000 ) ) ;
#84 = VERTEX_POINT ( 'NONE', #7 ) ;
#85 = AXIS2_PLACEMENT_3D ( 'NONE', #164, #262, #148 ) ;
#86 = EDGE_LOOP ( 'NONE', ( #241, #242, #99, #202 ) ) ;
#87 = EDGE_CURVE ( 'NONE', #293, #264, #140, .T. ) ;
#88 = APPLICATION_CONTEXT ( 'configuration controlled 3d designs of mechanical parts and assemblies' ) ;
#89 = VERTEX_POINT ( 'NONE', #173 ) ;
#90 = AXIS2_PLACEMENT_3D ( 'NONE', #297, #186, #128 ) ;
#91 = APPLICATION_PROTOCOL_DEFINITION ( 'international standard', 'config_control_design', 1994, #88 ) ;
#92 = DIRECTION ( 'NONE',  ( 0.000000000000000000, 0.000000000000000000, 1.000000000000000000 ) ) ;
#93 = EDGE_CURVE ( 'NONE', #127, #150, #18, .T. ) ;
#94 = APPROVAL_ROLE ( '' ) ;
#95 = CARTESIAN_POINT ( 'NONE',  ( 0.000000000000000000, 0.000000000000000000, 5.199999999999982414 ) ) ;
#96 = DATE_TIME_ROLE ( 'classification_date' ) ;
#97 =( GEOMETRIC_REPRESENTATION_CONTEXT ( 3 ) GLOBAL_UNCERTAINTY_ASSIGNED_CONTEXT ( ( #152 ) ) GLOBAL_UNIT_ASSIGNED_CONTEXT ( ( #135, #258, #19 ) ) REPRESENTATION_CONTEXT ( 'NONE', 'WORKASPACE' ) );
#98 = CARTESIAN_POINT ( 'NONE',  ( -8.000000000000000000, 0.000000000000000000, 0.000000000000000000 ) ) ;
#99 = ORIENTED_EDGE ( 'NONE', *, *, #63, .F. ) ;
#100 = ORIENTED_EDGE ( 'NONE', *, *, #203, .T. ) ;
#101 = CIRCLE ( 'NONE', #77, 5.500000000000000000 ) ;
#102 = EDGE_LOOP ( 'NONE', ( #143, #10, #112, #300 ) ) ;
#103 = DIRECTION ( 'NONE',  ( 0.000000000000000000, 0.000000000000000000, 1.000000000000000000 ) ) ;
#104 = CC_DESIGN_DATE_AND_TIME_ASSIGNMENT ( #50, #27, ( #210 ) ) ;
#105 = VERTEX_POINT ( 'NONE', #49 ) ;
#106 = LINE ( 'NONE', #73, #204 ) ;
#107 = ORIENTED_EDGE ( 'NONE', *, *, #25, .F. ) ;
#108 = DIRECTION ( 'NONE',  ( 1.000000000000000000, 0.000000000000000000, 0.000000000000000000 ) ) ;
#109 = CIRCLE ( 'NONE', #90, 5.500000000000000000 ) ;
#110 = EDGE_CURVE ( 'NONE', #127, #89, #291, .T. ) ;
#111 = CC_DESIGN_APPROVAL ( #245, ( #181 ) ) ;
#112 = ORIENTED_EDGE ( 'NONE', *, *, #118, .T. ) ;
#113 = PERSON_AND_ORGANIZATION_ROLE ( 'creator' ) ;
#114 = DIRECTION ( 'NONE',  ( 0.000000000000000000, 0.000000000000000000, 1.000000000000000000 ) ) ;
#115 = AXIS2_PLACEMENT_3D ( 'NONE', #269, #296, #57 ) ;
#116 = APPROVAL_PERSON_ORGANIZATION ( #141, #39, #94 ) ;
#117 = CALENDAR_DATE ( 2022, 7, 7 ) ;
#118 = EDGE_CURVE ( 'NONE', #84, #217, #32, .T. ) ;
#119 = AXIS2_PLACEMENT_3D ( 'NONE', #75, #103, #272 ) ;
#120 = COORDINATED_UNIVERSAL_TIME_OFFSET ( 1, 0, .AHEAD. ) ;
#121 = APPROVAL_ROLE ( '' ) ;
#122 = DIRECTION ( 'NONE',  ( 0.000000000000000000, 0.000000000000000000, 1.000000000000000000 ) ) ;
#123 = CARTESIAN_POINT ( 'NONE',  ( 0.000000000000000000, 0.000000000000000000, 405.0000000000000000 ) ) ;
#124 = ORIENTED_EDGE ( 'NONE', *, *, #110, .F. ) ;
#125 = DIRECTION ( 'NONE',  ( 0.000000000000000000, 0.000000000000000000, 1.000000000000000000 ) ) ;
#126 = CLOSED_SHELL ( 'NONE', ( #168, #144, #303, #42, #233, #20, #178, #1, #188 ) ) ;
#127 = VERTEX_POINT ( 'NONE', #307 ) ;
#128 = DIRECTION ( 'NONE',  ( 1.000000000000000000, 0.000000000000000000, 0.000000000000000000 ) ) ;
#129 = ORIENTED_EDGE ( 'NONE', *, *, #48, .F. ) ;
#130 = ORIENTED_EDGE ( 'NONE', *, *, #25, .T. ) ;
#131 = CIRCLE ( 'NONE', #115, 5.699999999999999289 ) ;
#132 = APPROVAL_DATE_TIME ( #304, #184 ) ;
#133 = DIRECTION ( 'NONE',  ( 0.000000000000000000, -1.000000000000000000, 0.000000000000000000 ) ) ;
#134 = AXIS2_PLACEMENT_3D ( 'NONE', #44, #257, #275 ) ;
#135 =( LENGTH_UNIT ( ) NAMED_UNIT ( * ) SI_UNIT ( .MILLI., .METRE. ) );
#136 = PERSON_AND_ORGANIZATION_ROLE ( 'classification_officer' ) ;
#137 = DATE_AND_TIME ( #182, #29 ) ;
#138 = CIRCLE ( 'NONE', #6, 8.000000000000000000 ) ;
#139 = PERSON_AND_ORGANIZATION ( #192, #198 ) ;
#140 = LINE ( 'NONE', #243, #213 ) ;
#141 = PERSON_AND_ORGANIZATION ( #192, #198 ) ;
#142 = CC_DESIGN_APPROVAL ( #184, ( #210 ) ) ;
#143 = ORIENTED_EDGE ( 'NONE', *, *, #87, .F. ) ;
#144 = ADVANCED_FACE ( 'NONE', ( #151 ), #175, .T. ) ;
#145 = EDGE_LOOP ( 'NONE', ( #276, #196 ) ) ;
#146 = DIRECTION ( 'NONE',  ( -1.000000000000000000, 0.000000000000000000, 0.000000000000000000 ) ) ;
#147 = ORIENTED_EDGE ( 'NONE', *, *, #160, .F. ) ;
#148 = DIRECTION ( 'NONE',  ( 1.000000000000000000, 0.000000000000000000, 0.000000000000000000 ) ) ;
#149 = AXIS2_PLACEMENT_3D ( 'NONE', #253, #133, #68 ) ;
#150 = VERTEX_POINT ( 'NONE', #249 ) ;
#151 = FACE_OUTER_BOUND ( 'NONE', #172, .T. ) ;
#152 = UNCERTAINTY_MEASURE_WITH_UNIT (LENGTH_MEASURE( 1.000000000000000082E-05 ), #135, 'distance_accuracy_value', 'NONE');
#153 = PERSON_AND_ORGANIZATION ( #192, #198 ) ;
#154 = DIRECTION ( 'NONE',  ( 1.000000000000000000, 0.000000000000000000, 0.000000000000000000 ) ) ;
#155 = CC_DESIGN_PERSON_AND_ORGANIZATION_ASSIGNMENT ( #14, #113, ( #210 ) ) ;
#156 = FACE_BOUND ( 'NONE', #145, .T. ) ;
#157 = COORDINATED_UNIVERSAL_TIME_OFFSET ( 1, 0, .AHEAD. ) ;
#158 = CARTESIAN_POINT ( 'NONE',  ( 5.500000000000000000, 6.735557395310442023E-16, 405.0000000000000000 ) ) ;
#159 = AXIS2_PLACEMENT_3D ( 'NONE', #206, #179, #64 ) ;
#160 = EDGE_CURVE ( 'NONE', #150, #127, #109, .T. ) ;
#161 = SHAPE_DEFINITION_REPRESENTATION ( #171, #17 ) ;
#162 = PRODUCT_RELATED_PRODUCT_CATEGORY ( 'detail', '', ( #166 ) ) ;
#163 = AXIS2_PLACEMENT_3D ( 'NONE', #95, #125, #9 ) ;
#164 = CARTESIAN_POINT ( 'NONE',  ( 0.000000000000000000, 0.000000000000000000, 5.199999999999982414 ) ) ;
#165 = CARTESIAN_POINT ( 'NONE',  ( 0.000000000000000000, 0.000000000000000000, 405.0000000000000000 ) ) ;
#166 = PRODUCT ( '1ba0', '1ba0', '', ( #62 ) ) ;
#167 = CARTESIAN_POINT ( 'NONE',  ( 0.000000000000000000, 0.000000000000000000, 0.000000000000000000 ) ) ;
#168 = ADVANCED_FACE ( 'NONE', ( #287 ), #281, .F. ) ;
#169 = LOCAL_TIME ( 14, 24, 27.00000000000000000, #231 ) ;
#170 = CARTESIAN_POINT ( 'NONE',  ( 0.000000000000000000, 0.000000000000000000, 0.000000000000000000 ) ) ;
#171 = PRODUCT_DEFINITION_SHAPE ( 'NONE', 'NONE',  #210 ) ;
#172 = EDGE_LOOP ( 'NONE', ( #129, #294, #56, #187 ) ) ;
#173 = CARTESIAN_POINT ( 'NONE',  ( -5.699999999999999289, 6.980486755139912122E-16, 4.999999999999991118 ) ) ;
#174 = DIRECTION ( 'NONE',  ( 1.000000000000000000, 0.000000000000000000, 0.000000000000000000 ) ) ;
#175 = CYLINDRICAL_SURFACE ( 'NONE', #286, 5.500000000000000000 ) ;
#176 = FACE_OUTER_BOUND ( 'NONE', #36, .T. ) ;
#177 = ORIENTED_EDGE ( 'NONE', *, *, #215, .T. ) ;
#178 = ADVANCED_FACE ( 'NONE', ( #223 ), #236, .T. ) ;
#179 = DIRECTION ( 'NONE',  ( -0.000000000000000000, -0.000000000000000000, -1.000000000000000000 ) ) ;
#180 = DIRECTION ( 'NONE',  ( 1.000000000000000000, 0.000000000000000000, -0.000000000000000000 ) ) ;
#181 = PRODUCT_DEFINITION_FORMATION_WITH_SPECIFIED_SOURCE ( 'LIBOVOLNÝ', '', #166, .NOT_KNOWN. ) ;
#182 = CALENDAR_DATE ( 2022, 7, 7 ) ;
#183 = APPROVAL_DATE_TIME ( #137, #245 ) ;
#184 = APPROVAL ( #279, 'NEURÈENÝ' ) ;
#185 = DIRECTION ( 'NONE',  ( -0.000000000000000000, -0.000000000000000000, -1.000000000000000000 ) ) ;
#186 = DIRECTION ( 'NONE',  ( 0.000000000000000000, 0.000000000000000000, 1.000000000000000000 ) ) ;
#187 = ORIENTED_EDGE ( 'NONE', *, *, #203, .F. ) ;
#188 = ADVANCED_FACE ( 'NONE', ( #218 ), #22, .F. ) ;
#189 = ORIENTED_EDGE ( 'NONE', *, *, #259, .F. ) ;
#190 = CIRCLE ( 'NONE', #273, 5.500000000000000000 ) ;
#191 = DIRECTION ( 'NONE',  ( 0.000000000000000000, 0.000000000000000000, 1.000000000000000000 ) ) ;
#192 = PERSON ( 'NEURÈENÝ', 'NEURÈENÝ', 'NEURÈENÝ', ('NEURÈENÝ'), ('NEURÈENÝ'), ('NEURÈENÝ') ) ;
#193 = CARTESIAN_POINT ( 'NONE',  ( 0.000000000000000000, 0.000000000000000000, 405.0000000000000000 ) ) ;
#194 = PLANE ( 'NONE',  #41 ) ;
#195 = DIRECTION ( 'NONE',  ( -0.000000000000000000, -0.000000000000000000, -1.000000000000000000 ) ) ;
#196 = ORIENTED_EDGE ( 'NONE', *, *, #16, .T. ) ;
#197 = DIRECTION ( 'NONE',  ( -0.000000000000000000, -0.000000000000000000, -1.000000000000000000 ) ) ;
#198 = ORGANIZATION ( 'NEURÈENÝ', 'NEURÈENÝ', '' ) ;
#199 = CC_DESIGN_APPROVAL ( #39, ( #299 ) ) ;
#200 = EDGE_LOOP ( 'NONE', ( #124, #147, #30, #59 ) ) ;
#201 = PLANE ( 'NONE',  #266 ) ;
#202 = ORIENTED_EDGE ( 'NONE', *, *, #292, .F. ) ;
#203 = EDGE_CURVE ( 'NONE', #105, #127, #106, .T. ) ;
#204 = VECTOR ( 'NONE', #195, 1000.000000000000000 ) ;
#205 = PERSON_AND_ORGANIZATION_ROLE ( 'design_owner' ) ;
#206 = CARTESIAN_POINT ( 'NONE',  ( 0.000000000000000000, 0.000000000000000000, 5.000000000000000000 ) ) ;
#207 = AXIS2_PLACEMENT_3D ( 'NONE', #83, #246, #263 ) ;
#208 = PERSON_AND_ORGANIZATION ( #192, #198 ) ;
#209 = APPROVAL_DATE_TIME ( #284, #39 ) ;
#210 = PRODUCT_DEFINITION ( 'NEZNÁMÝ', '', #181, #274 ) ;
#211 = PERSON_AND_ORGANIZATION ( #192, #198 ) ;
#212 = DIRECTION ( 'NONE',  ( 0.000000000000000000, 0.000000000000000000, 1.000000000000000000 ) ) ;
#213 = VECTOR ( 'NONE', #270, 1000.000000000000000 ) ;
#214 = CC_DESIGN_SECURITY_CLASSIFICATION ( #299, ( #181 ) ) ;
#215 = EDGE_CURVE ( 'NONE', #84, #293, #138, .T. ) ;
#216 = CARTESIAN_POINT ( 'NONE',  ( 0.000000000000000000, 0.000000000000000000, 5.000000000000000000 ) ) ;
#217 = VERTEX_POINT ( 'NONE', #98 ) ;
#218 = FACE_OUTER_BOUND ( 'NONE', #200, .T. ) ;
#219 = VECTOR ( 'NONE', #38, 1000.000000000000000 ) ;
#220 = DIRECTION ( 'NONE',  ( 1.000000000000000000, 0.000000000000000000, -0.000000000000000000 ) ) ;
#221 = DIRECTION ( 'NONE',  ( -0.000000000000000000, -0.000000000000000000, -1.000000000000000000 ) ) ;
#222 = ORIENTED_EDGE ( 'NONE', *, *, #48, .T. ) ;
#223 = FACE_OUTER_BOUND ( 'NONE', #301, .T. ) ;
#224 = VECTOR ( 'NONE', #305, 1000.000000000000000 ) ;
#225 = EDGE_CURVE ( 'NONE', #293, #84, #60, .T. ) ;
#226 = CARTESIAN_POINT ( 'NONE',  ( 0.000000000000000000, 0.000000000000000000, 5.000000000000000000 ) ) ;
#227 = CARTESIAN_POINT ( 'NONE',  ( 5.699999999999999289, 0.000000000000000000, 4.999999999999991118 ) ) ;
#228 = ORIENTED_EDGE ( 'NONE', *, *, #118, .F. ) ;
#229 = CARTESIAN_POINT ( 'NONE',  ( 0.000000000000000000, 0.000000000000000000, 405.0000000000000000 ) ) ;
#230 = CARTESIAN_POINT ( 'NONE',  ( 8.000000000000000000, 9.797174393178825657E-16, 5.000000000000000000 ) ) ;
#231 = COORDINATED_UNIVERSAL_TIME_OFFSET ( 1, 0, .AHEAD. ) ;
#232 = AXIS2_PLACEMENT_3D ( 'NONE', #58, #52, #61 ) ;
#233 = ADVANCED_FACE ( 'NONE', ( #156, #176 ), #201, .T. ) ;
#234 = CALENDAR_DATE ( 2022, 7, 7 ) ;
#235 = PERSON_AND_ORGANIZATION_ROLE ( 'creator' ) ;
#236 = CYLINDRICAL_SURFACE ( 'NONE', #34, 5.500000000000000000 ) ;
#237 = CIRCLE ( 'NONE', #261, 5.699999999999999289 ) ;
#238 = APPROVAL_PERSON_ORGANIZATION ( #153, #184, #251 ) ;
#239 = VERTEX_POINT ( 'NONE', #227 ) ;
#240 = CYLINDRICAL_SURFACE ( 'NONE', #47, 8.000000000000000000 ) ;
#241 = ORIENTED_EDGE ( 'NONE', *, *, #93, .F. ) ;
#242 = ORIENTED_EDGE ( 'NONE', *, *, #110, .T. ) ;
#243 = CARTESIAN_POINT ( 'NONE',  ( 8.000000000000000000, 9.797174393178825657E-16, 5.000000000000000000 ) ) ;
#244 = CARTESIAN_POINT ( 'NONE',  ( 5.500000000000000000, 6.735557395310442023E-16, 405.0000000000000000 ) ) ;
#245 = APPROVAL ( #46, 'NEURÈENÝ' ) ;
#246 = DIRECTION ( 'NONE',  ( 0.000000000000000000, 0.000000000000000000, 1.000000000000000000 ) ) ;
#247 = CIRCLE ( 'NONE', #149, 0.1999999999999996503 ) ;
#248 = EDGE_LOOP ( 'NONE', ( #8, #107 ) ) ;
#249 = CARTESIAN_POINT ( 'NONE',  ( 5.500000000000000000, 6.735557395310442023E-16, 5.199999999999982414 ) ) ;
#250 = EDGE_CURVE ( 'NONE', #105, #5, #190, .T. ) ;
#251 = APPROVAL_ROLE ( '' ) ;
#252 = CIRCLE ( 'NONE', #207, 8.000000000000000000 ) ;
#253 = CARTESIAN_POINT ( 'NONE',  ( 5.699999999999999289, 0.000000000000000000, 5.199999999999982414 ) ) ;
#254 = EDGE_LOOP ( 'NONE', ( #65, #267, #130, #228 ) ) ;
#255 = CARTESIAN_POINT ( 'NONE',  ( 0.000000000000000000, 0.000000000000000000, 5.000000000000000000 ) ) ;
#256 = ORIENTED_EDGE ( 'NONE', *, *, #250, .T. ) ;
#257 = DIRECTION ( 'NONE',  ( 0.000000000000000000, 0.000000000000000000, 1.000000000000000000 ) ) ;
#258 =( NAMED_UNIT ( * ) PLANE_ANGLE_UNIT ( ) SI_UNIT ( $, .RADIAN. ) );
#259 = EDGE_CURVE ( 'NONE', #5, #150, #69, .T. ) ;
#260 = SECURITY_CLASSIFICATION_LEVEL ( 'unclassified' ) ;
#261 = AXIS2_PLACEMENT_3D ( 'NONE', #80, #221, #35 ) ;
#262 = DIRECTION ( 'NONE',  ( 0.000000000000000000, 0.000000000000000000, 1.000000000000000000 ) ) ;
#263 = DIRECTION ( 'NONE',  ( 1.000000000000000000, 0.000000000000000000, 0.000000000000000000 ) ) ;
#264 = VERTEX_POINT ( 'NONE', #43 ) ;
#265 = DIRECTION ( 'NONE',  ( 0.000000000000000000, 0.000000000000000000, 1.000000000000000000 ) ) ;
#266 = AXIS2_PLACEMENT_3D ( 'NONE', #255, #114, #180 ) ;
#267 = ORIENTED_EDGE ( 'NONE', *, *, #87, .T. ) ;
#268 = CC_DESIGN_PERSON_AND_ORGANIZATION_ASSIGNMENT ( #278, #205, ( #166 ) ) ;
#269 = CARTESIAN_POINT ( 'NONE',  ( 0.000000000000000000, 0.000000000000000000, 5.000000000000000000 ) ) ;
#270 = DIRECTION ( 'NONE',  ( -0.000000000000000000, -0.000000000000000000, -1.000000000000000000 ) ) ;
#271 = DIRECTION ( 'NONE',  ( 0.000000000000000000, 0.000000000000000000, 1.000000000000000000 ) ) ;
#272 = DIRECTION ( 'NONE',  ( 1.000000000000000000, 0.000000000000000000, 0.000000000000000000 ) ) ;
#273 = AXIS2_PLACEMENT_3D ( 'NONE', #229, #280, #13 ) ;
#274 = DESIGN_CONTEXT ( 'detailed design', #88, 'design' ) ;
#275 = DIRECTION ( 'NONE',  ( 1.000000000000000000, 0.000000000000000000, 0.000000000000000000 ) ) ;
#276 = ORIENTED_EDGE ( 'NONE', *, *, #63, .T. ) ;
#277 = LOCAL_TIME ( 14, 24, 27.00000000000000000, #157 ) ;
#278 = PERSON_AND_ORGANIZATION ( #192, #198 ) ;
#279 = APPROVAL_STATUS ( 'not_yet_approved' ) ;
#280 = DIRECTION ( 'NONE',  ( 0.000000000000000000, 0.000000000000000000, 1.000000000000000000 ) ) ;
#281 = TOROIDAL_SURFACE ( 'NONE', #163, 5.699999999999999289, 0.2000000000000000111 ) ;
#282 = PERSON_AND_ORGANIZATION ( #192, #198 ) ;
#283 = DATE_AND_TIME ( #234, #169 ) ;
#284 = DATE_AND_TIME ( #74, #70 ) ;
#285 = DIRECTION ( 'NONE',  ( -1.000000000000000000, 0.000000000000000000, 0.000000000000000000 ) ) ;
#286 = AXIS2_PLACEMENT_3D ( 'NONE', #165, #197, #146 ) ;
#287 = FACE_OUTER_BOUND ( 'NONE', #86, .T. ) ;
#288 = APPLICATION_CONTEXT ( 'configuration controlled 3d designs of mechanical parts and assemblies' ) ;
#289 = DIRECTION ( 'NONE',  ( 1.000000000000000000, 0.000000000000000000, -0.000000000000000000 ) ) ;
#290 = FACE_OUTER_BOUND ( 'NONE', #82, .T. ) ;
#291 = CIRCLE ( 'NONE', #232, 0.1999999999999996503 ) ;
#292 = EDGE_CURVE ( 'NONE', #150, #239, #247, .T. ) ;
#293 = VERTEX_POINT ( 'NONE', #230 ) ;
#294 = ORIENTED_EDGE ( 'NONE', *, *, #259, .T. ) ;
#295 = CARTESIAN_POINT ( 'NONE',  ( -8.000000000000000000, 0.000000000000000000, 5.000000000000000000 ) ) ;
#296 = DIRECTION ( 'NONE',  ( -0.000000000000000000, -0.000000000000000000, -1.000000000000000000 ) ) ;
#297 = CARTESIAN_POINT ( 'NONE',  ( 0.000000000000000000, 0.000000000000000000, 5.199999999999982414 ) ) ;
#298 = CIRCLE ( 'NONE', #3, 8.000000000000000000 ) ;
#299 = SECURITY_CLASSIFICATION ( '', '', #260 ) ;
#300 = ORIENTED_EDGE ( 'NONE', *, *, #53, .T. ) ;
#301 = EDGE_LOOP ( 'NONE', ( #189, #31, #100, #79 ) ) ;
#302 = COORDINATED_UNIVERSAL_TIME_OFFSET ( 1, 0, .AHEAD. ) ;
#303 = ADVANCED_FACE ( 'NONE', ( #21 ), #40, .T. ) ;
#304 = DATE_AND_TIME ( #117, #277 ) ;
#305 = DIRECTION ( 'NONE',  ( -0.000000000000000000, -0.000000000000000000, -1.000000000000000000 ) ) ;
#306 = APPROVAL_STATUS ( 'not_yet_approved' ) ;
#307 = CARTESIAN_POINT ( 'NONE',  ( -5.500000000000000000, 0.000000000000000000, 5.199999999999982414 ) ) ;
ENDSEC;
END-ISO-10303-21;
