ISO-10303-21;
HEADER;
FILE_DESCRIPTION (( 'STEP AP203' ),
    '1' );
FILE_NAME ('6ba8.STEP',
    '2023-02-12T12:15:19',
    ( '' ),
    ( '' ),
    'SwSTEP 2.0',
    'SolidWorks 2019',
    '' );
FILE_SCHEMA (( 'CONFIG_CONTROL_DESIGN' ));
ENDSEC;

DATA;
#1 = APPROVAL_DATE_TIME ( #239, #12 ) ;
#2 = FACE_OUTER_BOUND ( 'NONE', #171, .T. ) ;
#3 = DATE_AND_TIME ( #245, #172 ) ;
#4 = DIRECTION ( 'NONE',  ( -1.000000000000000000, 0.000000000000000000, 0.000000000000000000 ) ) ;
#5 = PERSON_AND_ORGANIZATION ( #156, #69 ) ;
#6 = FACE_OUTER_BOUND ( 'NONE', #37, .T. ) ;
#7 = APPLICATION_CONTEXT ( 'configuration controlled 3d designs of mechanical parts and assemblies' ) ;
#8 = CIRCLE ( 'NONE', #161, 1.250000000000000000 ) ;
#9 = CARTESIAN_POINT ( 'NONE',  ( 0.000000000000000000, 0.000000000000000000, 0.000000000000000000 ) ) ;
#10 = CIRCLE ( 'NONE', #253, 2.500000000000000000 ) ;
#11 = ORIENTED_EDGE ( 'NONE', *, *, #33, .F. ) ;
#12 = APPROVAL ( #195, 'NEURÈENÝ' ) ;
#13 = ORIENTED_EDGE ( 'NONE', *, *, #84, .T. ) ;
#14 = CIRCLE ( 'NONE', #139, 2.500000000000000000 ) ;
#15 = EDGE_LOOP ( 'NONE', ( #16, #226, #232, #135 ) ) ;
#16 = ORIENTED_EDGE ( 'NONE', *, *, #132, .F. ) ;
#17 = PERSON_AND_ORGANIZATION ( #156, #69 ) ;
#18 = PLANE ( 'NONE',  #25 ) ;
#19 = ADVANCED_FACE ( 'NONE', ( #157 ), #34, .T. ) ;
#20 = DIRECTION ( 'NONE',  ( -0.000000000000000000, -0.000000000000000000, -1.000000000000000000 ) ) ;
#21 = DATE_AND_TIME ( #216, #237 ) ;
#22 = APPROVAL_PERSON_ORGANIZATION ( #98, #242, #106 ) ;
#23 = DIRECTION ( 'NONE',  ( 0.000000000000000000, 0.000000000000000000, 1.000000000000000000 ) ) ;
#24 = CARTESIAN_POINT ( 'NONE',  ( 0.000000000000000000, 0.000000000000000000, 2.000000000000000000 ) ) ;
#25 = AXIS2_PLACEMENT_3D ( 'NONE', #166, #184, #121 ) ;
#26 = DIRECTION ( 'NONE',  ( 1.000000000000000000, 0.000000000000000000, 0.000000000000000000 ) ) ;
#27 = PERSON_AND_ORGANIZATION_ROLE ( 'classification_officer' ) ;
#28 = APPROVAL_PERSON_ORGANIZATION ( #94, #12, #65 ) ;
#29 = PERSON_AND_ORGANIZATION ( #156, #69 ) ;
#30 = LINE ( 'NONE', #187, #148 ) ;
#31 = CLOSED_SHELL ( 'NONE', ( #162, #136, #213, #96, #255, #19, #102 ) ) ;
#32 = APPROVAL_ROLE ( '' ) ;
#33 = EDGE_CURVE ( 'NONE', #173, #74, #208, .T. ) ;
#34 = CYLINDRICAL_SURFACE ( 'NONE', #90, 1.250000000000000000 ) ;
#35 = DIRECTION ( 'NONE',  ( 0.000000000000000000, 0.000000000000000000, 1.000000000000000000 ) ) ;
#36 = ADVANCED_BREP_SHAPE_REPRESENTATION ( '6ba8', ( #175, #248 ), #181 ) ;
#37 = EDGE_LOOP ( 'NONE', ( #211, #158 ) ) ;
#38 = VERTEX_POINT ( 'NONE', #61 ) ;
#39 = COORDINATED_UNIVERSAL_TIME_OFFSET ( 1, 0, .AHEAD. ) ;
#40 = CC_DESIGN_DATE_AND_TIME_ASSIGNMENT ( #3, #86, ( #105 ) ) ;
#41 = AXIS2_PLACEMENT_3D ( 'NONE', #214, #177, #180 ) ;
#42 = PERSON_AND_ORGANIZATION_ROLE ( 'creator' ) ;
#43 =( LENGTH_UNIT ( ) NAMED_UNIT ( * ) SI_UNIT ( .MILLI., .METRE. ) );
#44 = PRODUCT_DEFINITION_SHAPE ( 'NONE', 'NONE',  #110 ) ;
#45 = EDGE_CURVE ( 'NONE', #74, #38, #205, .T. ) ;
#46 = CYLINDRICAL_SURFACE ( 'NONE', #130, 2.500000000000000000 ) ;
#47 = DIRECTION ( 'NONE',  ( -0.000000000000000000, -0.000000000000000000, -1.000000000000000000 ) ) ;
#48 = CIRCLE ( 'NONE', #246, 2.500000000000000000 ) ;
#49 = SECURITY_CLASSIFICATION_LEVEL ( 'unclassified' ) ;
#50 = AXIS2_PLACEMENT_3D ( 'NONE', #206, #103, #149 ) ;
#51 = COORDINATED_UNIVERSAL_TIME_OFFSET ( 1, 0, .AHEAD. ) ;
#52 = PRODUCT_RELATED_PRODUCT_CATEGORY ( 'detail', '', ( #131 ) ) ;
#53 = PERSON_AND_ORGANIZATION ( #156, #69 ) ;
#54 = DESIGN_CONTEXT ( 'detailed design', #7, 'design' ) ;
#55 = DIRECTION ( 'NONE',  ( -0.000000000000000000, -0.000000000000000000, -1.000000000000000000 ) ) ;
#56 = CC_DESIGN_PERSON_AND_ORGANIZATION_ASSIGNMENT ( #144, #188, ( #244 ) ) ;
#57 = VERTEX_POINT ( 'NONE', #191 ) ;
#58 = DIRECTION ( 'NONE',  ( -0.000000000000000000, -0.000000000000000000, -1.000000000000000000 ) ) ;
#59 = CC_DESIGN_APPROVAL ( #242, ( #244 ) ) ;
#60 = ORIENTED_EDGE ( 'NONE', *, *, #231, .T. ) ;
#61 = CARTESIAN_POINT ( 'NONE',  ( 1.250000000000000000, 1.530808498934191571E-16, 2.000000000000000000 ) ) ;
#62 = LOCAL_TIME ( 13, 15, 19.00000000000000000, #92 ) ;
#63 = APPROVAL_PERSON_ORGANIZATION ( #29, #165, #32 ) ;
#64 = EDGE_CURVE ( 'NONE', #91, #57, #14, .T. ) ;
#65 = APPROVAL_ROLE ( '' ) ;
#66 = CARTESIAN_POINT ( 'NONE',  ( 1.250000000000000000, 1.530808498934191571E-16, 125.0000000000000000 ) ) ;
#67 = DIRECTION ( 'NONE',  ( 1.000000000000000000, 0.000000000000000000, 0.000000000000000000 ) ) ;
#68 = CARTESIAN_POINT ( 'NONE',  ( 0.000000000000000000, 0.000000000000000000, 2.000000000000000000 ) ) ;
#69 = ORGANIZATION ( 'NEURÈENÝ', 'NEURÈENÝ', '' ) ;
#70 = FACE_OUTER_BOUND ( 'NONE', #209, .T. ) ;
#71 = VERTEX_POINT ( 'NONE', #183 ) ;
#72 = AXIS2_PLACEMENT_3D ( 'NONE', #167, #146, #222 ) ;
#73 = ORIENTED_EDGE ( 'NONE', *, *, #150, .T. ) ;
#74 = VERTEX_POINT ( 'NONE', #240 ) ;
#75 = CIRCLE ( 'NONE', #41, 2.500000000000000000 ) ;
#76 = ORIENTED_EDGE ( 'NONE', *, *, #150, .F. ) ;
#77 = MECHANICAL_CONTEXT ( 'NONE', #107, 'mechanical' ) ;
#78 = DIRECTION ( 'NONE',  ( 0.000000000000000000, 0.000000000000000000, 1.000000000000000000 ) ) ;
#79 = CARTESIAN_POINT ( 'NONE',  ( -2.500000000000000000, 0.000000000000000000, 2.000000000000000000 ) ) ;
#80 = CARTESIAN_POINT ( 'NONE',  ( 0.000000000000000000, 0.000000000000000000, 0.000000000000000000 ) ) ;
#81 = CARTESIAN_POINT ( 'NONE',  ( -2.500000000000000000, 0.000000000000000000, 2.000000000000000000 ) ) ;
#82 = VECTOR ( 'NONE', #58, 1000.000000000000000 ) ;
#83 = DIRECTION ( 'NONE',  ( 0.000000000000000000, 0.000000000000000000, 1.000000000000000000 ) ) ;
#84 = EDGE_CURVE ( 'NONE', #93, #57, #142, .T. ) ;
#85 = PLANE ( 'NONE',  #72 ) ;
#86 = DATE_TIME_ROLE ( 'classification_date' ) ;
#87 = AXIS2_PLACEMENT_3D ( 'NONE', #119, #236, #97 ) ;
#88 = ORIENTED_EDGE ( 'NONE', *, *, #132, .T. ) ;
#89 = ORIENTED_EDGE ( 'NONE', *, *, #116, .T. ) ;
#90 = AXIS2_PLACEMENT_3D ( 'NONE', #112, #55, #153 ) ;
#91 = VERTEX_POINT ( 'NONE', #201 ) ;
#92 = COORDINATED_UNIVERSAL_TIME_OFFSET ( 1, 0, .AHEAD. ) ;
#93 = VERTEX_POINT ( 'NONE', #81 ) ;
#94 = PERSON_AND_ORGANIZATION ( #156, #69 ) ;
#95 = DIRECTION ( 'NONE',  ( 1.000000000000000000, 0.000000000000000000, -0.000000000000000000 ) ) ;
#96 = ADVANCED_FACE ( 'NONE', ( #196, #160 ), #18, .T. ) ;
#97 = DIRECTION ( 'NONE',  ( -1.000000000000000000, 0.000000000000000000, 0.000000000000000000 ) ) ;
#98 = PERSON_AND_ORGANIZATION ( #156, #69 ) ;
#99 = CARTESIAN_POINT ( 'NONE',  ( 0.000000000000000000, 0.000000000000000000, 125.0000000000000000 ) ) ;
#100 = DIRECTION ( 'NONE',  ( 1.000000000000000000, 0.000000000000000000, 0.000000000000000000 ) ) ;
#101 = DIRECTION ( 'NONE',  ( 0.000000000000000000, 0.000000000000000000, 1.000000000000000000 ) ) ;
#102 = ADVANCED_FACE ( 'NONE', ( #235 ), #199, .T. ) ;
#103 = DIRECTION ( 'NONE',  ( -0.000000000000000000, -0.000000000000000000, -1.000000000000000000 ) ) ;
#104 = CC_DESIGN_SECURITY_CLASSIFICATION ( #105, ( #244 ) ) ;
#105 = SECURITY_CLASSIFICATION ( '', '', #49 ) ;
#106 = APPROVAL_ROLE ( '' ) ;
#107 = APPLICATION_CONTEXT ( 'configuration controlled 3d designs of mechanical parts and assemblies' ) ;
#108 = COORDINATED_UNIVERSAL_TIME_OFFSET ( 1, 0, .AHEAD. ) ;
#109 = VECTOR ( 'NONE', #215, 1000.000000000000000 ) ;
#110 = PRODUCT_DEFINITION ( 'NEZNÁMÝ', '', #244, #54 ) ;
#111 = CARTESIAN_POINT ( 'NONE',  ( -1.250000000000000000, 0.000000000000000000, 125.0000000000000000 ) ) ;
#112 = CARTESIAN_POINT ( 'NONE',  ( 0.000000000000000000, 0.000000000000000000, 125.0000000000000000 ) ) ;
#113 = CC_DESIGN_DATE_AND_TIME_ASSIGNMENT ( #21, #178, ( #110 ) ) ;
#114 = ORIENTED_EDGE ( 'NONE', *, *, #84, .F. ) ;
#115 = EDGE_LOOP ( 'NONE', ( #192, #60 ) ) ;
#116 = EDGE_CURVE ( 'NONE', #71, #173, #8, .T. ) ;
#117 = APPROVAL_STATUS ( 'not_yet_approved' ) ;
#118 =( NAMED_UNIT ( * ) SI_UNIT ( $, .STERADIAN. ) SOLID_ANGLE_UNIT ( ) );
#119 = CARTESIAN_POINT ( 'NONE',  ( 0.000000000000000000, 0.000000000000000000, 2.000000000000000000 ) ) ;
#120 = DIRECTION ( 'NONE',  ( 0.000000000000000000, 0.000000000000000000, 1.000000000000000000 ) ) ;
#121 = DIRECTION ( 'NONE',  ( 1.000000000000000000, 0.000000000000000000, -0.000000000000000000 ) ) ;
#122 = APPLICATION_PROTOCOL_DEFINITION ( 'international standard', 'config_control_design', 1994, #107 ) ;
#123 = EDGE_CURVE ( 'NONE', #57, #91, #48, .T. ) ;
#124 = CARTESIAN_POINT ( 'NONE',  ( 0.000000000000000000, 0.000000000000000000, 2.000000000000000000 ) ) ;
#125 = APPROVAL_DATE_TIME ( #129, #165 ) ;
#126 = DIRECTION ( 'NONE',  ( 1.000000000000000000, 0.000000000000000000, 0.000000000000000000 ) ) ;
#127 = CALENDAR_DATE ( 2023, 12, 2 ) ;
#128 = CC_DESIGN_PERSON_AND_ORGANIZATION_ASSIGNMENT ( #53, #224, ( #244 ) ) ;
#129 = DATE_AND_TIME ( #127, #238 ) ;
#130 = AXIS2_PLACEMENT_3D ( 'NONE', #124, #47, #4 ) ;
#131 = PRODUCT ( '6ba8', '6ba8', '', ( #77 ) ) ;
#132 = EDGE_CURVE ( 'NONE', #71, #38, #220, .T. ) ;
#133 = ORIENTED_EDGE ( 'NONE', *, *, #227, .T. ) ;
#134 = ORIENTED_EDGE ( 'NONE', *, *, #207, .T. ) ;
#135 = ORIENTED_EDGE ( 'NONE', *, *, #45, .T. ) ;
#136 = ADVANCED_FACE ( 'NONE', ( #2 ), #163, .T. ) ;
#137 = CIRCLE ( 'NONE', #152, 1.250000000000000000 ) ;
#138 = ORIENTED_EDGE ( 'NONE', *, *, #64, .T. ) ;
#139 = AXIS2_PLACEMENT_3D ( 'NONE', #9, #254, #197 ) ;
#140 = DIRECTION ( 'NONE',  ( 1.000000000000000000, 0.000000000000000000, 0.000000000000000000 ) ) ;
#141 = DIRECTION ( 'NONE',  ( 0.000000000000000000, 0.000000000000000000, 1.000000000000000000 ) ) ;
#142 = LINE ( 'NONE', #79, #109 ) ;
#143 = DIRECTION ( 'NONE',  ( 0.000000000000000000, 0.000000000000000000, 1.000000000000000000 ) ) ;
#144 = PERSON_AND_ORGANIZATION ( #156, #69 ) ;
#145 = CARTESIAN_POINT ( 'NONE',  ( -1.250000000000000000, 0.000000000000000000, 125.0000000000000000 ) ) ;
#146 = DIRECTION ( 'NONE',  ( 0.000000000000000000, 0.000000000000000000, 1.000000000000000000 ) ) ;
#147 = APPROVAL_DATE_TIME ( #189, #242 ) ;
#148 = VECTOR ( 'NONE', #200, 1000.000000000000000 ) ;
#149 = DIRECTION ( 'NONE',  ( -1.000000000000000000, 0.000000000000000000, 0.000000000000000000 ) ) ;
#150 = EDGE_CURVE ( 'NONE', #38, #74, #190, .T. ) ;
#151 = ORIENTED_EDGE ( 'NONE', *, *, #45, .F. ) ;
#152 = AXIS2_PLACEMENT_3D ( 'NONE', #99, #83, #67 ) ;
#153 = DIRECTION ( 'NONE',  ( -1.000000000000000000, 0.000000000000000000, 0.000000000000000000 ) ) ;
#154 = EDGE_CURVE ( 'NONE', #93, #193, #75, .T. ) ;
#155 = ORIENTED_EDGE ( 'NONE', *, *, #231, .F. ) ;
#156 = PERSON ( 'NEURÈENÝ', 'NEURÈENÝ', 'NEURÈENÝ', ('NEURÈENÝ'), ('NEURÈENÝ'), ('NEURÈENÝ') ) ;
#157 = FACE_OUTER_BOUND ( 'NONE', #15, .T. ) ;
#158 = ORIENTED_EDGE ( 'NONE', *, *, #64, .F. ) ;
#159 = PERSON_AND_ORGANIZATION_ROLE ( 'design_owner' ) ;
#160 = FACE_OUTER_BOUND ( 'NONE', #115, .T. ) ;
#161 = AXIS2_PLACEMENT_3D ( 'NONE', #179, #23, #217 ) ;
#162 = ADVANCED_FACE ( 'NONE', ( #70 ), #202, .T. ) ;
#163 = CYLINDRICAL_SURFACE ( 'NONE', #87, 2.500000000000000000 ) ;
#164 = PERSON_AND_ORGANIZATION ( #156, #69 ) ;
#165 = APPROVAL ( #186, 'NEURÈENÝ' ) ;
#166 = CARTESIAN_POINT ( 'NONE',  ( 0.000000000000000000, 0.000000000000000000, 2.000000000000000000 ) ) ;
#167 = CARTESIAN_POINT ( 'NONE',  ( 0.000000000000000000, 0.000000000000000000, 0.000000000000000000 ) ) ;
#168 = LOCAL_TIME ( 13, 15, 19.00000000000000000, #223 ) ;
#169 = CALENDAR_DATE ( 2023, 12, 2 ) ;
#170 = VECTOR ( 'NONE', #20, 1000.000000000000000 ) ;
#171 = EDGE_LOOP ( 'NONE', ( #155, #133, #138, #114 ) ) ;
#172 = LOCAL_TIME ( 13, 15, 19.00000000000000000, #51 ) ;
#173 = VERTEX_POINT ( 'NONE', #145 ) ;
#174 = ORIENTED_EDGE ( 'NONE', *, *, #116, .F. ) ;
#175 = MANIFOLD_SOLID_BREP ( 'Pøidat vysunutím3', #31 ) ;
#176 = ORIENTED_EDGE ( 'NONE', *, *, #154, .F. ) ;
#177 = DIRECTION ( 'NONE',  ( 0.000000000000000000, 0.000000000000000000, 1.000000000000000000 ) ) ;
#178 = DATE_TIME_ROLE ( 'creation_date' ) ;
#179 = CARTESIAN_POINT ( 'NONE',  ( 0.000000000000000000, 0.000000000000000000, 125.0000000000000000 ) ) ;
#180 = DIRECTION ( 'NONE',  ( 1.000000000000000000, 0.000000000000000000, 0.000000000000000000 ) ) ;
#181 =( GEOMETRIC_REPRESENTATION_CONTEXT ( 3 ) GLOBAL_UNCERTAINTY_ASSIGNED_CONTEXT ( ( #225 ) ) GLOBAL_UNIT_ASSIGNED_CONTEXT ( ( #43, #182, #118 ) ) REPRESENTATION_CONTEXT ( 'NONE', 'WORKASPACE' ) );
#182 =( NAMED_UNIT ( * ) PLANE_ANGLE_UNIT ( ) SI_UNIT ( $, .RADIAN. ) );
#183 = CARTESIAN_POINT ( 'NONE',  ( 1.250000000000000000, 1.530808498934191571E-16, 125.0000000000000000 ) ) ;
#184 = DIRECTION ( 'NONE',  ( 0.000000000000000000, 0.000000000000000000, 1.000000000000000000 ) ) ;
#185 = CC_DESIGN_PERSON_AND_ORGANIZATION_ASSIGNMENT ( #5, #27, ( #105 ) ) ;
#186 = APPROVAL_STATUS ( 'not_yet_approved' ) ;
#187 = CARTESIAN_POINT ( 'NONE',  ( 2.500000000000000000, 3.061616997868383141E-16, 2.000000000000000000 ) ) ;
#188 = PERSON_AND_ORGANIZATION_ROLE ( 'creator' ) ;
#189 = DATE_AND_TIME ( #169, #168 ) ;
#190 = CIRCLE ( 'NONE', #228, 1.250000000000000000 ) ;
#191 = CARTESIAN_POINT ( 'NONE',  ( -2.500000000000000000, 0.000000000000000000, 0.000000000000000000 ) ) ;
#192 = ORIENTED_EDGE ( 'NONE', *, *, #154, .T. ) ;
#193 = VERTEX_POINT ( 'NONE', #243 ) ;
#194 = DIRECTION ( 'NONE',  ( 1.000000000000000000, 0.000000000000000000, 0.000000000000000000 ) ) ;
#195 = APPROVAL_STATUS ( 'not_yet_approved' ) ;
#196 = FACE_BOUND ( 'NONE', #249, .T. ) ;
#197 = DIRECTION ( 'NONE',  ( 1.000000000000000000, 0.000000000000000000, 0.000000000000000000 ) ) ;
#198 = CARTESIAN_POINT ( 'NONE',  ( 0.000000000000000000, 0.000000000000000000, 0.000000000000000000 ) ) ;
#199 = PLANE ( 'NONE',  #234 ) ;
#200 = DIRECTION ( 'NONE',  ( -0.000000000000000000, -0.000000000000000000, -1.000000000000000000 ) ) ;
#201 = CARTESIAN_POINT ( 'NONE',  ( 2.500000000000000000, 3.061616997868383141E-16, 0.000000000000000000 ) ) ;
#202 = CYLINDRICAL_SURFACE ( 'NONE', #50, 1.250000000000000000 ) ;
#203 = CC_DESIGN_APPROVAL ( #12, ( #110 ) ) ;
#204 = SHAPE_DEFINITION_REPRESENTATION ( #44, #36 ) ;
#205 = CIRCLE ( 'NONE', #247, 1.250000000000000000 ) ;
#206 = CARTESIAN_POINT ( 'NONE',  ( 0.000000000000000000, 0.000000000000000000, 125.0000000000000000 ) ) ;
#207 = EDGE_CURVE ( 'NONE', #173, #71, #137, .T. ) ;
#208 = LINE ( 'NONE', #111, #82 ) ;
#209 = EDGE_LOOP ( 'NONE', ( #174, #88, #73, #11 ) ) ;
#210 = CARTESIAN_POINT ( 'NONE',  ( 0.000000000000000000, 0.000000000000000000, 2.000000000000000000 ) ) ;
#211 = ORIENTED_EDGE ( 'NONE', *, *, #123, .F. ) ;
#212 = APPLICATION_PROTOCOL_DEFINITION ( 'international standard', 'config_control_design', 1994, #7 ) ;
#213 = ADVANCED_FACE ( 'NONE', ( #219 ), #46, .T. ) ;
#214 = CARTESIAN_POINT ( 'NONE',  ( 0.000000000000000000, 0.000000000000000000, 2.000000000000000000 ) ) ;
#215 = DIRECTION ( 'NONE',  ( -0.000000000000000000, -0.000000000000000000, -1.000000000000000000 ) ) ;
#216 = CALENDAR_DATE ( 2023, 12, 2 ) ;
#217 = DIRECTION ( 'NONE',  ( 1.000000000000000000, 0.000000000000000000, 0.000000000000000000 ) ) ;
#218 = CC_DESIGN_APPROVAL ( #165, ( #105 ) ) ;
#219 = FACE_OUTER_BOUND ( 'NONE', #251, .T. ) ;
#220 = LINE ( 'NONE', #66, #170 ) ;
#221 = CC_DESIGN_PERSON_AND_ORGANIZATION_ASSIGNMENT ( #17, #159, ( #131 ) ) ;
#222 = DIRECTION ( 'NONE',  ( 1.000000000000000000, 0.000000000000000000, -0.000000000000000000 ) ) ;
#223 = COORDINATED_UNIVERSAL_TIME_OFFSET ( 1, 0, .AHEAD. ) ;
#224 = PERSON_AND_ORGANIZATION_ROLE ( 'design_supplier' ) ;
#225 = UNCERTAINTY_MEASURE_WITH_UNIT (LENGTH_MEASURE( 1.000000000000000082E-05 ), #43, 'distance_accuracy_value', 'NONE');
#226 = ORIENTED_EDGE ( 'NONE', *, *, #207, .F. ) ;
#227 = EDGE_CURVE ( 'NONE', #193, #91, #30, .T. ) ;
#228 = AXIS2_PLACEMENT_3D ( 'NONE', #68, #143, #26 ) ;
#229 = ORIENTED_EDGE ( 'NONE', *, *, #227, .F. ) ;
#230 = ORIENTED_EDGE ( 'NONE', *, *, #123, .T. ) ;
#231 = EDGE_CURVE ( 'NONE', #193, #93, #10, .T. ) ;
#232 = ORIENTED_EDGE ( 'NONE', *, *, #33, .T. ) ;
#233 = CALENDAR_DATE ( 2023, 12, 2 ) ;
#234 = AXIS2_PLACEMENT_3D ( 'NONE', #241, #141, #95 ) ;
#235 = FACE_OUTER_BOUND ( 'NONE', #252, .T. ) ;
#236 = DIRECTION ( 'NONE',  ( -0.000000000000000000, -0.000000000000000000, -1.000000000000000000 ) ) ;
#237 = LOCAL_TIME ( 13, 15, 19.00000000000000000, #39 ) ;
#238 = LOCAL_TIME ( 13, 15, 19.00000000000000000, #108 ) ;
#239 = DATE_AND_TIME ( #233, #62 ) ;
#240 = CARTESIAN_POINT ( 'NONE',  ( -1.250000000000000000, 0.000000000000000000, 2.000000000000000000 ) ) ;
#241 = CARTESIAN_POINT ( 'NONE',  ( 0.000000000000000000, 0.000000000000000000, 125.0000000000000000 ) ) ;
#242 = APPROVAL ( #117, 'NEURÈENÝ' ) ;
#243 = CARTESIAN_POINT ( 'NONE',  ( 2.500000000000000000, 3.061616997868383141E-16, 2.000000000000000000 ) ) ;
#244 = PRODUCT_DEFINITION_FORMATION_WITH_SPECIFIED_SOURCE ( 'LIBOVOLNÝ', '', #131, .NOT_KNOWN. ) ;
#245 = CALENDAR_DATE ( 2023, 12, 2 ) ;
#246 = AXIS2_PLACEMENT_3D ( 'NONE', #198, #78, #100 ) ;
#247 = AXIS2_PLACEMENT_3D ( 'NONE', #210, #35, #194 ) ;
#248 = AXIS2_PLACEMENT_3D ( 'NONE', #80, #120, #140 ) ;
#249 = EDGE_LOOP ( 'NONE', ( #151, #76 ) ) ;
#250 = CC_DESIGN_PERSON_AND_ORGANIZATION_ASSIGNMENT ( #164, #42, ( #110 ) ) ;
#251 = EDGE_LOOP ( 'NONE', ( #229, #176, #13, #230 ) ) ;
#252 = EDGE_LOOP ( 'NONE', ( #134, #89 ) ) ;
#253 = AXIS2_PLACEMENT_3D ( 'NONE', #24, #101, #126 ) ;
#254 = DIRECTION ( 'NONE',  ( 0.000000000000000000, 0.000000000000000000, 1.000000000000000000 ) ) ;
#255 = ADVANCED_FACE ( 'NONE', ( #6 ), #85, .F. ) ;
ENDSEC;
END-ISO-10303-21;
