ISO-10303-21;
HEADER;
FILE_DESCRIPTION (( 'STEP AP203' ),
    '1' );
FILE_NAME ('73a8.STEP',
    '2022-07-07T12:46:24',
    ( '' ),
    ( '' ),
    'SwSTEP 2.0',
    'SolidWorks 2019',
    '' );
FILE_SCHEMA (( 'CONFIG_CONTROL_DESIGN' ));
ENDSEC;

DATA;
#1 = DIRECTION ( 'NONE',  ( 1.000000000000000000, 0.000000000000000000, 0.000000000000000000 ) ) ;
#2 = APPROVAL_PERSON_ORGANIZATION ( #35, #36, #37 ) ;
#3 = CARTESIAN_POINT ( 'NONE',  ( 0.000000000000000000, 0.000000000000000000, 318.0000000000000000 ) ) ;
#4 = EDGE_CURVE ( 'NONE', #141, #211, #294, .T. ) ;
#5 = ORIENTED_EDGE ( 'NONE', *, *, #19, .T. ) ;
#6 = ORIENTED_EDGE ( 'NONE', *, *, #226, .T. ) ;
#7 = CARTESIAN_POINT ( 'NONE',  ( 0.000000000000000000, 0.000000000000000000, 0.000000000000000000 ) ) ;
#8 = COORDINATED_UNIVERSAL_TIME_OFFSET ( 1, 0, .AHEAD. ) ;
#9 = DIRECTION ( 'NONE',  ( 0.000000000000000000, 0.000000000000000000, 1.000000000000000000 ) ) ;
#10 = DATE_AND_TIME ( #144, #275 ) ;
#11 = CYLINDRICAL_SURFACE ( 'NONE', #116, 5.000000000000000000 ) ;
#12 = DATE_TIME_ROLE ( 'classification_date' ) ;
#13 = APPROVAL_PERSON_ORGANIZATION ( #97, #253, #217 ) ;
#14 = DIRECTION ( 'NONE',  ( -0.000000000000000000, -0.000000000000000000, -1.000000000000000000 ) ) ;
#15 = LOCAL_TIME ( 14, 46, 24.00000000000000000, #8 ) ;
#16 = APPROVAL_STATUS ( 'not_yet_approved' ) ;
#17 = DIRECTION ( 'NONE',  ( 1.000000000000000000, 0.000000000000000000, 0.000000000000000000 ) ) ;
#18 = CARTESIAN_POINT ( 'NONE',  ( -5.000000000000000000, 0.000000000000000000, 3.000000000000000000 ) ) ;
#19 = EDGE_CURVE ( 'NONE', #235, #146, #42, .T. ) ;
#20 = ORIENTED_EDGE ( 'NONE', *, *, #4, .F. ) ;
#21 = ORIENTED_EDGE ( 'NONE', *, *, #306, .F. ) ;
#22 = VERTEX_POINT ( 'NONE', #69 ) ;
#23 = CARTESIAN_POINT ( 'NONE',  ( -5.000000000000000000, 0.000000000000000000, 3.000000000000000000 ) ) ;
#24 = ORIENTED_EDGE ( 'NONE', *, *, #55, .T. ) ;
#25 = CC_DESIGN_PERSON_AND_ORGANIZATION_ASSIGNMENT ( #251, #300, ( #51 ) ) ;
#26 = ADVANCED_FACE ( 'NONE', ( #131 ), #281, .F. ) ;
#27 = CARTESIAN_POINT ( 'NONE',  ( 2.500000000000000000, 3.061616997868383141E-16, 318.0000000000000000 ) ) ;
#28 = DIRECTION ( 'NONE',  ( 1.224646799147353207E-16, 1.000000000000000000, -0.000000000000000000 ) ) ;
#29 = APPROVAL ( #16, 'NEURÈENÝ' ) ;
#30 = DIRECTION ( 'NONE',  ( 0.000000000000000000, -1.000000000000000000, 0.000000000000000000 ) ) ;
#31 = DATE_AND_TIME ( #220, #176 ) ;
#32 = AXIS2_PLACEMENT_3D ( 'NONE', #264, #208, #1 ) ;
#33 = DESIGN_CONTEXT ( 'detailed design', #132, 'design' ) ;
#34 = DIRECTION ( 'NONE',  ( -0.000000000000000000, -0.000000000000000000, -1.000000000000000000 ) ) ;
#35 = PERSON_AND_ORGANIZATION ( #230, #183 ) ;
#36 = APPROVAL ( #196, 'NEURÈENÝ' ) ;
#37 = APPROVAL_ROLE ( '' ) ;
#38 = AXIS2_PLACEMENT_3D ( 'NONE', #216, #9, #244 ) ;
#39 = ORIENTED_EDGE ( 'NONE', *, *, #91, .T. ) ;
#40 = DIRECTION ( 'NONE',  ( 0.000000000000000000, 0.000000000000000000, 1.000000000000000000 ) ) ;
#41 = CARTESIAN_POINT ( 'NONE',  ( -2.500000000000000000, 0.000000000000000000, 318.0000000000000000 ) ) ;
#42 = CIRCLE ( 'NONE', #167, 2.500000000000000000 ) ;
#43 = EDGE_LOOP ( 'NONE', ( #169, #111, #262, #290 ) ) ;
#44 = ADVANCED_BREP_SHAPE_REPRESENTATION ( '73a8', ( #65, #75 ), #287 ) ;
#45 = DIRECTION ( 'NONE',  ( 1.000000000000000000, 0.000000000000000000, 0.000000000000000000 ) ) ;
#46 = VERTEX_POINT ( 'NONE', #18 ) ;
#47 = FACE_OUTER_BOUND ( 'NONE', #180, .T. ) ;
#48 = ORIENTED_EDGE ( 'NONE', *, *, #52, .F. ) ;
#49 = DIRECTION ( 'NONE',  ( 1.000000000000000000, 0.000000000000000000, 0.000000000000000000 ) ) ;
#50 = AXIS2_PLACEMENT_3D ( 'NONE', #219, #53, #289 ) ;
#51 = PRODUCT_DEFINITION_FORMATION_WITH_SPECIFIED_SOURCE ( 'LIBOVOLNÝ', '', #295, .NOT_KNOWN. ) ;
#52 = EDGE_CURVE ( 'NONE', #46, #211, #158, .T. ) ;
#53 = DIRECTION ( 'NONE',  ( 0.000000000000000000, 0.000000000000000000, 1.000000000000000000 ) ) ;
#54 = CALENDAR_DATE ( 2022, 7, 7 ) ;
#55 = EDGE_CURVE ( 'NONE', #136, #46, #128, .T. ) ;
#56 = CARTESIAN_POINT ( 'NONE',  ( 5.000000000000000000, 6.123233995736766282E-16, 0.000000000000000000 ) ) ;
#57 = DIRECTION ( 'NONE',  ( -1.000000000000000000, 0.000000000000000000, 0.000000000000000000 ) ) ;
#58 = DIRECTION ( 'NONE',  ( -1.000000000000000000, 0.000000000000000000, 0.000000000000000000 ) ) ;
#59 = CLOSED_SHELL ( 'NONE', ( #250, #138, #280, #174, #165, #26, #301, #291, #302 ) ) ;
#60 = CARTESIAN_POINT ( 'NONE',  ( 0.000000000000000000, 0.000000000000000000, 0.000000000000000000 ) ) ;
#61 = AXIS2_PLACEMENT_3D ( 'NONE', #81, #277, #58 ) ;
#62 = CC_DESIGN_APPROVAL ( #253, ( #51 ) ) ;
#63 = DIRECTION ( 'NONE',  ( 0.000000000000000000, 0.000000000000000000, 1.000000000000000000 ) ) ;
#64 = APPROVAL_PERSON_ORGANIZATION ( #305, #29, #172 ) ;
#65 = MANIFOLD_SOLID_BREP ( 'Zaoblit1', #59 ) ;
#66 = CARTESIAN_POINT ( 'NONE',  ( 5.000000000000000000, 6.123233995736766282E-16, 3.000000000000000000 ) ) ;
#67 = EDGE_CURVE ( 'NONE', #136, #141, #84, .T. ) ;
#68 = CARTESIAN_POINT ( 'NONE',  ( 0.000000000000000000, 0.000000000000000000, 3.000000000000000000 ) ) ;
#69 = CARTESIAN_POINT ( 'NONE',  ( 2.500000000000000000, 3.061616997868383141E-16, 3.199999999999980638 ) ) ;
#70 = EDGE_LOOP ( 'NONE', ( #39, #182 ) ) ;
#71 = DIRECTION ( 'NONE',  ( 0.000000000000000000, 0.000000000000000000, -1.000000000000000000 ) ) ;
#72 = VERTEX_POINT ( 'NONE', #110 ) ;
#73 = CARTESIAN_POINT ( 'NONE',  ( -5.000000000000000000, 0.000000000000000000, 0.000000000000000000 ) ) ;
#74 = CARTESIAN_POINT ( 'NONE',  ( 0.000000000000000000, 0.000000000000000000, 3.000000000000000000 ) ) ;
#75 = AXIS2_PLACEMENT_3D ( 'NONE', #60, #153, #106 ) ;
#76 = COORDINATED_UNIVERSAL_TIME_OFFSET ( 1, 0, .AHEAD. ) ;
#77 = FACE_OUTER_BOUND ( 'NONE', #43, .T. ) ;
#78 = CC_DESIGN_PERSON_AND_ORGANIZATION_ASSIGNMENT ( #247, #243, ( #249 ) ) ;
#79 = CIRCLE ( 'NONE', #38, 2.500000000000000000 ) ;
#80 = APPROVAL_DATE_TIME ( #10, #253 ) ;
#81 = CARTESIAN_POINT ( 'NONE',  ( 0.000000000000000000, 0.000000000000000000, 318.0000000000000000 ) ) ;
#82 = DIRECTION ( 'NONE',  ( 1.000000000000000000, 0.000000000000000000, -0.000000000000000000 ) ) ;
#83 = VECTOR ( 'NONE', #267, 1000.000000000000000 ) ;
#84 = LINE ( 'NONE', #66, #303 ) ;
#85 = AXIS2_PLACEMENT_3D ( 'NONE', #168, #30, #71 ) ;
#86 = DIRECTION ( 'NONE',  ( 0.000000000000000000, 0.000000000000000000, 1.000000000000000000 ) ) ;
#87 = DIRECTION ( 'NONE',  ( -0.000000000000000000, -0.000000000000000000, -1.000000000000000000 ) ) ;
#88 = ORIENTED_EDGE ( 'NONE', *, *, #233, .F. ) ;
#89 = AXIS2_PLACEMENT_3D ( 'NONE', #68, #139, #237 ) ;
#90 = CARTESIAN_POINT ( 'NONE',  ( 0.000000000000000000, 0.000000000000000000, 0.000000000000000000 ) ) ;
#91 = EDGE_CURVE ( 'NONE', #72, #236, #212, .T. ) ;
#92 = CARTESIAN_POINT ( 'NONE',  ( 5.000000000000000000, 6.123233995736766282E-16, 3.000000000000000000 ) ) ;
#93 = CARTESIAN_POINT ( 'NONE',  ( 0.000000000000000000, 0.000000000000000000, 3.199999999999980638 ) ) ;
#94 = CALENDAR_DATE ( 2022, 7, 7 ) ;
#95 = EDGE_CURVE ( 'NONE', #146, #235, #203, .T. ) ;
#96 = CARTESIAN_POINT ( 'NONE',  ( -2.500000000000000000, 0.000000000000000000, 3.199999999999980638 ) ) ;
#97 = PERSON_AND_ORGANIZATION ( #230, #183 ) ;
#98 = CARTESIAN_POINT ( 'NONE',  ( -2.700000000000000178, 3.306546357697853733E-16, 3.199999999999980638 ) ) ;
#99 = TOROIDAL_SURFACE ( 'NONE', #278, 2.700000000000000178, 0.2000000000000000111 ) ;
#100 = COORDINATED_UNIVERSAL_TIME_OFFSET ( 1, 0, .AHEAD. ) ;
#101 = AXIS2_PLACEMENT_3D ( 'NONE', #246, #120, #239 ) ;
#102 = CARTESIAN_POINT ( 'NONE',  ( 0.000000000000000000, 0.000000000000000000, 3.199999999999980638 ) ) ;
#103 = SECURITY_CLASSIFICATION ( '', '', #149 ) ;
#104 = FACE_OUTER_BOUND ( 'NONE', #161, .T. ) ;
#105 = AXIS2_PLACEMENT_3D ( 'NONE', #185, #86, #282 ) ;
#106 = DIRECTION ( 'NONE',  ( 1.000000000000000000, 0.000000000000000000, 0.000000000000000000 ) ) ;
#107 = AXIS2_PLACEMENT_3D ( 'NONE', #127, #256, #82 ) ;
#108 = EDGE_CURVE ( 'NONE', #46, #136, #284, .T. ) ;
#109 = ORIENTED_EDGE ( 'NONE', *, *, #108, .F. ) ;
#110 = CARTESIAN_POINT ( 'NONE',  ( 2.700000000000000178, 0.000000000000000000, 2.999999999999990674 ) ) ;
#111 = ORIENTED_EDGE ( 'NONE', *, *, #233, .T. ) ;
#112 = DIRECTION ( 'NONE',  ( 1.000000000000000000, 0.000000000000000000, 0.000000000000000000 ) ) ;
#113 = EDGE_CURVE ( 'NONE', #146, #164, #261, .T. ) ;
#114 = ORIENTED_EDGE ( 'NONE', *, *, #189, .F. ) ;
#115 = CC_DESIGN_DATE_AND_TIME_ASSIGNMENT ( #152, #293, ( #249 ) ) ;
#116 = AXIS2_PLACEMENT_3D ( 'NONE', #74, #34, #190 ) ;
#117 = CARTESIAN_POINT ( 'NONE',  ( -2.700000000000000178, 3.306546357697853733E-16, 2.999999999999990674 ) ) ;
#118 = EDGE_LOOP ( 'NONE', ( #21, #232, #238, #210 ) ) ;
#119 = CARTESIAN_POINT ( 'NONE',  ( 0.000000000000000000, 0.000000000000000000, 3.000000000000000000 ) ) ;
#120 = DIRECTION ( 'NONE',  ( 0.000000000000000000, 0.000000000000000000, 1.000000000000000000 ) ) ;
#121 = AXIS2_PLACEMENT_3D ( 'NONE', #135, #40, #45 ) ;
#122 = APPROVAL_DATE_TIME ( #298, #36 ) ;
#123 = LOCAL_TIME ( 14, 46, 24.00000000000000000, #147 ) ;
#124 = APPLICATION_PROTOCOL_DEFINITION ( 'international standard', 'config_control_design', 1994, #132 ) ;
#125 = AXIS2_PLACEMENT_3D ( 'NONE', #93, #192, #270 ) ;
#126 = PERSON_AND_ORGANIZATION_ROLE ( 'design_owner' ) ;
#127 = CARTESIAN_POINT ( 'NONE',  ( 0.000000000000000000, 0.000000000000000000, 318.0000000000000000 ) ) ;
#128 = CIRCLE ( 'NONE', #121, 5.000000000000000000 ) ;
#129 = EDGE_CURVE ( 'NONE', #236, #72, #231, .T. ) ;
#130 = CC_DESIGN_SECURITY_CLASSIFICATION ( #103, ( #51 ) ) ;
#131 = FACE_OUTER_BOUND ( 'NONE', #279, .T. ) ;
#132 = APPLICATION_CONTEXT ( 'configuration controlled 3d designs of mechanical parts and assemblies' ) ;
#133 = DIRECTION ( 'NONE',  ( 1.000000000000000000, 0.000000000000000000, 0.000000000000000000 ) ) ;
#134 = PRODUCT_RELATED_PRODUCT_CATEGORY ( 'detail', '', ( #295 ) ) ;
#135 = CARTESIAN_POINT ( 'NONE',  ( 0.000000000000000000, 0.000000000000000000, 3.000000000000000000 ) ) ;
#136 = VERTEX_POINT ( 'NONE', #92 ) ;
#137 = AXIS2_PLACEMENT_3D ( 'NONE', #102, #252, #17 ) ;
#138 = ADVANCED_FACE ( 'NONE', ( #77 ), #274, .T. ) ;
#139 = DIRECTION ( 'NONE',  ( 0.000000000000000000, 0.000000000000000000, 1.000000000000000000 ) ) ;
#140 = EDGE_LOOP ( 'NONE', ( #143, #193, #6, #191 ) ) ;
#141 = VERTEX_POINT ( 'NONE', #56 ) ;
#142 = CARTESIAN_POINT ( 'NONE',  ( 0.000000000000000000, 0.000000000000000000, 318.0000000000000000 ) ) ;
#143 = ORIENTED_EDGE ( 'NONE', *, *, #162, .F. ) ;
#144 = CALENDAR_DATE ( 2022, 7, 7 ) ;
#145 = CYLINDRICAL_SURFACE ( 'NONE', #271, 5.000000000000000000 ) ;
#146 = VERTEX_POINT ( 'NONE', #148 ) ;
#147 = COORDINATED_UNIVERSAL_TIME_OFFSET ( 1, 0, .AHEAD. ) ;
#148 = CARTESIAN_POINT ( 'NONE',  ( -2.500000000000000000, 0.000000000000000000, 318.0000000000000000 ) ) ;
#149 = SECURITY_CLASSIFICATION_LEVEL ( 'unclassified' ) ;
#150 = DIRECTION ( 'NONE',  ( -1.000000000000000000, 1.224646799147353207E-16, 0.000000000000000000 ) ) ;
#151 = APPROVAL_DATE_TIME ( #177, #29 ) ;
#152 = DATE_AND_TIME ( #94, #15 ) ;
#153 = DIRECTION ( 'NONE',  ( 0.000000000000000000, 0.000000000000000000, 1.000000000000000000 ) ) ;
#154 = AXIS2_PLACEMENT_3D ( 'NONE', #90, #213, #112 ) ;
#155 = AXIS2_PLACEMENT_3D ( 'NONE', #98, #28, #150 ) ;
#156 = PERSON_AND_ORGANIZATION ( #230, #183 ) ;
#157 = EDGE_CURVE ( 'NONE', #22, #164, #79, .T. ) ;
#158 = LINE ( 'NONE', #23, #263 ) ;
#159 = CIRCLE ( 'NONE', #50, 5.000000000000000000 ) ;
#160 = EDGE_LOOP ( 'NONE', ( #209, #268, #286, #48 ) ) ;
#161 = EDGE_LOOP ( 'NONE', ( #259, #5 ) ) ;
#162 = EDGE_CURVE ( 'NONE', #164, #236, #258, .T. ) ;
#163 = DIRECTION ( 'NONE',  ( 0.000000000000000000, 0.000000000000000000, 1.000000000000000000 ) ) ;
#164 = VERTEX_POINT ( 'NONE', #96 ) ;
#165 = ADVANCED_FACE ( 'NONE', ( #297, #47 ), #272, .T. ) ;
#166 = CARTESIAN_POINT ( 'NONE',  ( 2.500000000000000000, 3.061616997868383141E-16, 318.0000000000000000 ) ) ;
#167 = AXIS2_PLACEMENT_3D ( 'NONE', #3, #163, #133 ) ;
#168 = CARTESIAN_POINT ( 'NONE',  ( 2.700000000000000178, 0.000000000000000000, 3.199999999999980638 ) ) ;
#169 = ORIENTED_EDGE ( 'NONE', *, *, #19, .F. ) ;
#170 = TOROIDAL_SURFACE ( 'NONE', #125, 2.700000000000000178, 0.2000000000000000111 ) ;
#171 = DIRECTION ( 'NONE',  ( -1.000000000000000000, 0.000000000000000000, 0.000000000000000000 ) ) ;
#172 = APPROVAL_ROLE ( '' ) ;
#173 = CARTESIAN_POINT ( 'NONE',  ( 0.000000000000000000, 0.000000000000000000, 3.000000000000000000 ) ) ;
#174 = ADVANCED_FACE ( 'NONE', ( #242 ), #11, .T. ) ;
#175 = PERSON_AND_ORGANIZATION ( #230, #183 ) ;
#176 = LOCAL_TIME ( 14, 46, 24.00000000000000000, #76 ) ;
#177 = DATE_AND_TIME ( #54, #123 ) ;
#178 = PLANE ( 'NONE',  #107 ) ;
#179 = DIRECTION ( 'NONE',  ( 1.000000000000000000, 0.000000000000000000, 0.000000000000000000 ) ) ;
#180 = EDGE_LOOP ( 'NONE', ( #260, #24 ) ) ;
#181 = VECTOR ( 'NONE', #283, 1000.000000000000000 ) ;
#182 = ORIENTED_EDGE ( 'NONE', *, *, #129, .T. ) ;
#183 = ORGANIZATION ( 'NEURÈENÝ', 'NEURÈENÝ', '' ) ;
#184 = ORIENTED_EDGE ( 'NONE', *, *, #189, .T. ) ;
#185 = CARTESIAN_POINT ( 'NONE',  ( 0.000000000000000000, 0.000000000000000000, 318.0000000000000000 ) ) ;
#186 = ORIENTED_EDGE ( 'NONE', *, *, #95, .F. ) ;
#187 = EDGE_LOOP ( 'NONE', ( #88, #186, #288, #240 ) ) ;
#188 = CC_DESIGN_APPROVAL ( #36, ( #103 ) ) ;
#189 = EDGE_CURVE ( 'NONE', #211, #141, #159, .T. ) ;
#190 = DIRECTION ( 'NONE',  ( -1.000000000000000000, 0.000000000000000000, 0.000000000000000000 ) ) ;
#191 = ORIENTED_EDGE ( 'NONE', *, *, #129, .F. ) ;
#192 = DIRECTION ( 'NONE',  ( 0.000000000000000000, 0.000000000000000000, 1.000000000000000000 ) ) ;
#193 = ORIENTED_EDGE ( 'NONE', *, *, #157, .F. ) ;
#194 = DIRECTION ( 'NONE',  ( -0.000000000000000000, -0.000000000000000000, -1.000000000000000000 ) ) ;
#195 = PRODUCT_DEFINITION_SHAPE ( 'NONE', 'NONE',  #249 ) ;
#196 = APPROVAL_STATUS ( 'not_yet_approved' ) ;
#197 = LINE ( 'NONE', #166, #83 ) ;
#198 = SHAPE_DEFINITION_REPRESENTATION ( #195, #44 ) ;
#199 =( NAMED_UNIT ( * ) PLANE_ANGLE_UNIT ( ) SI_UNIT ( $, .RADIAN. ) );
#200 = FACE_OUTER_BOUND ( 'NONE', #140, .T. ) ;
#201 = CC_DESIGN_PERSON_AND_ORGANIZATION_ASSIGNMENT ( #245, #224, ( #103 ) ) ;
#202 = MECHANICAL_CONTEXT ( 'NONE', #269, 'mechanical' ) ;
#203 = CIRCLE ( 'NONE', #105, 2.500000000000000000 ) ;
#204 = CIRCLE ( 'NONE', #85, 0.2000000000000000944 ) ;
#205 = CC_DESIGN_APPROVAL ( #29, ( #249 ) ) ;
#206 = CC_DESIGN_PERSON_AND_ORGANIZATION_ASSIGNMENT ( #156, #126, ( #295 ) ) ;
#207 = EDGE_LOOP ( 'NONE', ( #285, #109, #266, #184 ) ) ;
#208 = DIRECTION ( 'NONE',  ( -0.000000000000000000, -0.000000000000000000, -1.000000000000000000 ) ) ;
#209 = ORIENTED_EDGE ( 'NONE', *, *, #55, .F. ) ;
#210 = ORIENTED_EDGE ( 'NONE', *, *, #226, .F. ) ;
#211 = VERTEX_POINT ( 'NONE', #73 ) ;
#212 = CIRCLE ( 'NONE', #32, 2.700000000000000178 ) ;
#213 = DIRECTION ( 'NONE',  ( 0.000000000000000000, 0.000000000000000000, 1.000000000000000000 ) ) ;
#214 = FACE_OUTER_BOUND ( 'NONE', #118, .T. ) ;
#215 = CALENDAR_DATE ( 2022, 7, 7 ) ;
#216 = CARTESIAN_POINT ( 'NONE',  ( 0.000000000000000000, 0.000000000000000000, 3.199999999999980638 ) ) ;
#217 = APPROVAL_ROLE ( '' ) ;
#218 = AXIS2_PLACEMENT_3D ( 'NONE', #7, #63, #234 ) ;
#219 = CARTESIAN_POINT ( 'NONE',  ( 0.000000000000000000, 0.000000000000000000, 0.000000000000000000 ) ) ;
#220 = CALENDAR_DATE ( 2022, 7, 7 ) ;
#221 = UNCERTAINTY_MEASURE_WITH_UNIT (LENGTH_MEASURE( 1.000000000000000082E-05 ), #304, 'distance_accuracy_value', 'NONE');
#222 = COORDINATED_UNIVERSAL_TIME_OFFSET ( 1, 0, .AHEAD. ) ;
#223 = CC_DESIGN_PERSON_AND_ORGANIZATION_ASSIGNMENT ( #175, #273, ( #51 ) ) ;
#224 = PERSON_AND_ORGANIZATION_ROLE ( 'classification_officer' ) ;
#225 = CARTESIAN_POINT ( 'NONE',  ( 0.000000000000000000, 0.000000000000000000, 3.199999999999980638 ) ) ;
#226 = EDGE_CURVE ( 'NONE', #22, #72, #204, .T. ) ;
#227 = LOCAL_TIME ( 14, 46, 24.00000000000000000, #100 ) ;
#228 = DIRECTION ( 'NONE',  ( 0.000000000000000000, 0.000000000000000000, 1.000000000000000000 ) ) ;
#229 = CYLINDRICAL_SURFACE ( 'NONE', #61, 2.500000000000000000 ) ;
#230 = PERSON ( 'NEURÈENÝ', 'NEURÈENÝ', 'NEURÈENÝ', ('NEURÈENÝ'), ('NEURÈENÝ'), ('NEURÈENÝ') ) ;
#231 = CIRCLE ( 'NONE', #296, 2.700000000000000178 ) ;
#232 = ORIENTED_EDGE ( 'NONE', *, *, #162, .T. ) ;
#233 = EDGE_CURVE ( 'NONE', #235, #22, #197, .T. ) ;
#234 = DIRECTION ( 'NONE',  ( 1.000000000000000000, 0.000000000000000000, -0.000000000000000000 ) ) ;
#235 = VERTEX_POINT ( 'NONE', #27 ) ;
#236 = VERTEX_POINT ( 'NONE', #117 ) ;
#237 = DIRECTION ( 'NONE',  ( 1.000000000000000000, 0.000000000000000000, 0.000000000000000000 ) ) ;
#238 = ORIENTED_EDGE ( 'NONE', *, *, #91, .F. ) ;
#239 = DIRECTION ( 'NONE',  ( 1.000000000000000000, 0.000000000000000000, -0.000000000000000000 ) ) ;
#240 = ORIENTED_EDGE ( 'NONE', *, *, #306, .T. ) ;
#241 = APPROVAL_STATUS ( 'not_yet_approved' ) ;
#242 = FACE_OUTER_BOUND ( 'NONE', #207, .T. ) ;
#243 = PERSON_AND_ORGANIZATION_ROLE ( 'creator' ) ;
#244 = DIRECTION ( 'NONE',  ( 1.000000000000000000, 0.000000000000000000, 0.000000000000000000 ) ) ;
#245 = PERSON_AND_ORGANIZATION ( #230, #183 ) ;
#246 = CARTESIAN_POINT ( 'NONE',  ( 0.000000000000000000, 0.000000000000000000, 3.000000000000000000 ) ) ;
#247 = PERSON_AND_ORGANIZATION ( #230, #183 ) ;
#248 = AXIS2_PLACEMENT_3D ( 'NONE', #142, #194, #171 ) ;
#249 = PRODUCT_DEFINITION ( 'NEZNÁMÝ', '', #51, #33 ) ;
#250 = ADVANCED_FACE ( 'NONE', ( #214 ), #170, .F. ) ;
#251 = PERSON_AND_ORGANIZATION ( #230, #183 ) ;
#252 = DIRECTION ( 'NONE',  ( 0.000000000000000000, 0.000000000000000000, 1.000000000000000000 ) ) ;
#253 = APPROVAL ( #241, 'NEURÈENÝ' ) ;
#254 =( NAMED_UNIT ( * ) SI_UNIT ( $, .STERADIAN. ) SOLID_ANGLE_UNIT ( ) );
#255 = FACE_OUTER_BOUND ( 'NONE', #187, .T. ) ;
#256 = DIRECTION ( 'NONE',  ( 0.000000000000000000, 0.000000000000000000, 1.000000000000000000 ) ) ;
#257 = CC_DESIGN_DATE_AND_TIME_ASSIGNMENT ( #31, #12, ( #103 ) ) ;
#258 = CIRCLE ( 'NONE', #155, 0.2000000000000000944 ) ;
#259 = ORIENTED_EDGE ( 'NONE', *, *, #95, .T. ) ;
#260 = ORIENTED_EDGE ( 'NONE', *, *, #108, .T. ) ;
#261 = LINE ( 'NONE', #41, #181 ) ;
#262 = ORIENTED_EDGE ( 'NONE', *, *, #157, .T. ) ;
#263 = VECTOR ( 'NONE', #307, 1000.000000000000000 ) ;
#264 = CARTESIAN_POINT ( 'NONE',  ( 0.000000000000000000, 0.000000000000000000, 3.000000000000000000 ) ) ;
#265 = CIRCLE ( 'NONE', #137, 2.500000000000000000 ) ;
#266 = ORIENTED_EDGE ( 'NONE', *, *, #52, .T. ) ;
#267 = DIRECTION ( 'NONE',  ( -0.000000000000000000, -0.000000000000000000, -1.000000000000000000 ) ) ;
#268 = ORIENTED_EDGE ( 'NONE', *, *, #67, .T. ) ;
#269 = APPLICATION_CONTEXT ( 'configuration controlled 3d designs of mechanical parts and assemblies' ) ;
#270 = DIRECTION ( 'NONE',  ( 1.000000000000000000, 0.000000000000000000, 0.000000000000000000 ) ) ;
#271 = AXIS2_PLACEMENT_3D ( 'NONE', #119, #14, #57 ) ;
#272 = PLANE ( 'NONE',  #101 ) ;
#273 = PERSON_AND_ORGANIZATION_ROLE ( 'design_supplier' ) ;
#274 = CYLINDRICAL_SURFACE ( 'NONE', #248, 2.500000000000000000 ) ;
#275 = LOCAL_TIME ( 14, 46, 24.00000000000000000, #222 ) ;
#276 = APPLICATION_PROTOCOL_DEFINITION ( 'international standard', 'config_control_design', 1994, #269 ) ;
#277 = DIRECTION ( 'NONE',  ( -0.000000000000000000, -0.000000000000000000, -1.000000000000000000 ) ) ;
#278 = AXIS2_PLACEMENT_3D ( 'NONE', #225, #228, #179 ) ;
#279 = EDGE_LOOP ( 'NONE', ( #114, #20 ) ) ;
#280 = ADVANCED_FACE ( 'NONE', ( #292 ), #145, .T. ) ;
#281 = PLANE ( 'NONE',  #218 ) ;
#282 = DIRECTION ( 'NONE',  ( 1.000000000000000000, 0.000000000000000000, 0.000000000000000000 ) ) ;
#283 = DIRECTION ( 'NONE',  ( -0.000000000000000000, -0.000000000000000000, -1.000000000000000000 ) ) ;
#284 = CIRCLE ( 'NONE', #89, 5.000000000000000000 ) ;
#285 = ORIENTED_EDGE ( 'NONE', *, *, #67, .F. ) ;
#286 = ORIENTED_EDGE ( 'NONE', *, *, #4, .T. ) ;
#287 =( GEOMETRIC_REPRESENTATION_CONTEXT ( 3 ) GLOBAL_UNCERTAINTY_ASSIGNED_CONTEXT ( ( #221 ) ) GLOBAL_UNIT_ASSIGNED_CONTEXT ( ( #304, #199, #254 ) ) REPRESENTATION_CONTEXT ( 'NONE', 'WORKASPACE' ) );
#288 = ORIENTED_EDGE ( 'NONE', *, *, #113, .T. ) ;
#289 = DIRECTION ( 'NONE',  ( 1.000000000000000000, 0.000000000000000000, 0.000000000000000000 ) ) ;
#290 = ORIENTED_EDGE ( 'NONE', *, *, #113, .F. ) ;
#291 = ADVANCED_FACE ( 'NONE', ( #104 ), #178, .T. ) ;
#292 = FACE_OUTER_BOUND ( 'NONE', #160, .T. ) ;
#293 = DATE_TIME_ROLE ( 'creation_date' ) ;
#294 = CIRCLE ( 'NONE', #154, 5.000000000000000000 ) ;
#295 = PRODUCT ( '73a8', '73a8', '', ( #202 ) ) ;
#296 = AXIS2_PLACEMENT_3D ( 'NONE', #173, #299, #49 ) ;
#297 = FACE_BOUND ( 'NONE', #70, .T. ) ;
#298 = DATE_AND_TIME ( #215, #227 ) ;
#299 = DIRECTION ( 'NONE',  ( -0.000000000000000000, -0.000000000000000000, -1.000000000000000000 ) ) ;
#300 = PERSON_AND_ORGANIZATION_ROLE ( 'creator' ) ;
#301 = ADVANCED_FACE ( 'NONE', ( #255 ), #229, .T. ) ;
#302 = ADVANCED_FACE ( 'NONE', ( #200 ), #99, .F. ) ;
#303 = VECTOR ( 'NONE', #87, 1000.000000000000000 ) ;
#304 =( LENGTH_UNIT ( ) NAMED_UNIT ( * ) SI_UNIT ( .MILLI., .METRE. ) );
#305 = PERSON_AND_ORGANIZATION ( #230, #183 ) ;
#306 = EDGE_CURVE ( 'NONE', #164, #22, #265, .T. ) ;
#307 = DIRECTION ( 'NONE',  ( -0.000000000000000000, -0.000000000000000000, -1.000000000000000000 ) ) ;
ENDSEC;
END-ISO-10303-21;
