ISO-10303-21;
HEADER;
FILE_DESCRIPTION (( 'STEP AP203' ),
    '1' );
FILE_NAME ('6e3d.STEP',
    '2022-07-07T12:50:08',
    ( '' ),
    ( '' ),
    'SwSTEP 2.0',
    'SolidWorks 2019',
    '' );
FILE_SCHEMA (( 'CONFIG_CONTROL_DESIGN' ));
ENDSEC;

DATA;
#1 = CIRCLE ( 'NONE', #131, 4.000000000000000000 ) ;
#2 = DIRECTION ( 'NONE',  ( -0.000000000000000000, -0.000000000000000000, -1.000000000000000000 ) ) ;
#3 = VERTEX_POINT ( 'NONE', #265 ) ;
#4 = DIRECTION ( 'NONE',  ( 1.000000000000000000, 0.000000000000000000, 0.000000000000000000 ) ) ;
#5 = CIRCLE ( 'NONE', #58, 2.100000000000000089 ) ;
#6 = DIRECTION ( 'NONE',  ( 0.000000000000000000, -1.000000000000000000, 0.000000000000000000 ) ) ;
#7 = PLANE ( 'NONE',  #303 ) ;
#8 = LINE ( 'NONE', #103, #167 ) ;
#9 = MANIFOLD_SOLID_BREP ( 'Zaoblit1', #134 ) ;
#10 = AXIS2_PLACEMENT_3D ( 'NONE', #125, #266, #176 ) ;
#11 = EDGE_CURVE ( 'NONE', #161, #304, #1, .T. ) ;
#12 = APPLICATION_CONTEXT ( 'configuration controlled 3d designs of mechanical parts and assemblies' ) ;
#13 = DESIGN_CONTEXT ( 'detailed design', #63, 'design' ) ;
#14 = ORIENTED_EDGE ( 'NONE', *, *, #34, .F. ) ;
#15 = CC_DESIGN_DATE_AND_TIME_ASSIGNMENT ( #145, #246, ( #102 ) ) ;
#16 = AXIS2_PLACEMENT_3D ( 'NONE', #97, #294, #245 ) ;
#17 = ORIENTED_EDGE ( 'NONE', *, *, #208, .F. ) ;
#18 = FACE_OUTER_BOUND ( 'NONE', #301, .T. ) ;
#19 = DIRECTION ( 'NONE',  ( -0.000000000000000000, -0.000000000000000000, -1.000000000000000000 ) ) ;
#20 = CALENDAR_DATE ( 2022, 7, 7 ) ;
#21 = EDGE_LOOP ( 'NONE', ( #238, #31, #175, #42 ) ) ;
#22 = DIRECTION ( 'NONE',  ( -0.000000000000000000, -0.000000000000000000, -1.000000000000000000 ) ) ;
#23 = DIRECTION ( 'NONE',  ( -0.000000000000000000, -0.000000000000000000, -1.000000000000000000 ) ) ;
#24 = FACE_OUTER_BOUND ( 'NONE', #135, .T. ) ;
#25 = DIRECTION ( 'NONE',  ( 1.000000000000000000, 0.000000000000000000, -0.000000000000000000 ) ) ;
#26 = COORDINATED_UNIVERSAL_TIME_OFFSET ( 1, 0, .AHEAD. ) ;
#27 = CC_DESIGN_PERSON_AND_ORGANIZATION_ASSIGNMENT ( #130, #209, ( #85 ) ) ;
#28 = CARTESIAN_POINT ( 'NONE',  ( 4.000000000000000000, 4.898587196589412829E-16, 3.000000000000000000 ) ) ;
#29 = PERSON_AND_ORGANIZATION ( #277, #219 ) ;
#30 = CIRCLE ( 'NONE', #16, 2.100000000000000089 ) ;
#31 = ORIENTED_EDGE ( 'NONE', *, *, #133, .T. ) ;
#32 = PLANE ( 'NONE',  #191 ) ;
#33 = APPROVAL_DATE_TIME ( #153, #84 ) ;
#34 = EDGE_CURVE ( 'NONE', #216, #155, #215, .T. ) ;
#35 = CC_DESIGN_DATE_AND_TIME_ASSIGNMENT ( #60, #295, ( #85 ) ) ;
#36 = LOCAL_TIME ( 14, 50, 8.000000000000000000, #116 ) ;
#37 = EDGE_CURVE ( 'NONE', #247, #136, #65, .T. ) ;
#38 = CIRCLE ( 'NONE', #114, 4.000000000000000000 ) ;
#39 = DIRECTION ( 'NONE',  ( -1.000000000000000000, 0.000000000000000000, 0.000000000000000000 ) ) ;
#40 = AXIS2_PLACEMENT_3D ( 'NONE', #98, #22, #122 ) ;
#41 = ADVANCED_FACE ( 'NONE', ( #305 ), #255, .F. ) ;
#42 = ORIENTED_EDGE ( 'NONE', *, *, #182, .F. ) ;
#43 = CARTESIAN_POINT ( 'NONE',  ( 0.000000000000000000, 0.000000000000000000, 3.000000000000000000 ) ) ;
#44 = DIRECTION ( 'NONE',  ( 1.000000000000000000, 0.000000000000000000, 0.000000000000000000 ) ) ;
#45 = DIRECTION ( 'NONE',  ( 1.224646799147353207E-16, 1.000000000000000000, -0.000000000000000000 ) ) ;
#46 =( NAMED_UNIT ( * ) PLANE_ANGLE_UNIT ( ) SI_UNIT ( $, .RADIAN. ) );
#47 = CC_DESIGN_APPROVAL ( #87, ( #111 ) ) ;
#48 = CARTESIAN_POINT ( 'NONE',  ( 0.000000000000000000, 0.000000000000000000, 0.000000000000000000 ) ) ;
#49 = CALENDAR_DATE ( 2022, 7, 7 ) ;
#50 = EDGE_LOOP ( 'NONE', ( #96, #199 ) ) ;
#51 = DIRECTION ( 'NONE',  ( 0.000000000000000000, 0.000000000000000000, -1.000000000000000000 ) ) ;
#52 = APPROVAL_STATUS ( 'not_yet_approved' ) ;
#53 = VERTEX_POINT ( 'NONE', #240 ) ;
#54 = PLANE ( 'NONE',  #109 ) ;
#55 = DIRECTION ( 'NONE',  ( 1.000000000000000000, 0.000000000000000000, 0.000000000000000000 ) ) ;
#56 = CYLINDRICAL_SURFACE ( 'NONE', #10, 4.000000000000000000 ) ;
#57 = ADVANCED_FACE ( 'NONE', ( #18 ), #264, .T. ) ;
#58 = AXIS2_PLACEMENT_3D ( 'NONE', #226, #123, #4 ) ;
#59 = ORIENTED_EDGE ( 'NONE', *, *, #117, .F. ) ;
#60 = DATE_AND_TIME ( #254, #236 ) ;
#61 = EDGE_CURVE ( 'NONE', #66, #53, #38, .T. ) ;
#62 = APPROVAL ( #267, 'NEURÈENÝ' ) ;
#63 = APPLICATION_CONTEXT ( 'configuration controlled 3d designs of mechanical parts and assemblies' ) ;
#64 = DIRECTION ( 'NONE',  ( -0.000000000000000000, -0.000000000000000000, -1.000000000000000000 ) ) ;
#65 = CIRCLE ( 'NONE', #86, 2.300000000000000266 ) ;
#66 = VERTEX_POINT ( 'NONE', #113 ) ;
#67 = CARTESIAN_POINT ( 'NONE',  ( 0.000000000000000000, 0.000000000000000000, 3.000000000000000000 ) ) ;
#68 = DIRECTION ( 'NONE',  ( 1.000000000000000000, 0.000000000000000000, 0.000000000000000000 ) ) ;
#69 = PERSON_AND_ORGANIZATION_ROLE ( 'creator' ) ;
#70 = EDGE_LOOP ( 'NONE', ( #261, #205, #307, #280 ) ) ;
#71 = ORIENTED_EDGE ( 'NONE', *, *, #140, .F. ) ;
#72 =( GEOMETRIC_REPRESENTATION_CONTEXT ( 3 ) GLOBAL_UNCERTAINTY_ASSIGNED_CONTEXT ( ( #189 ) ) GLOBAL_UNIT_ASSIGNED_CONTEXT ( ( #270, #46, #76 ) ) REPRESENTATION_CONTEXT ( 'NONE', 'WORKASPACE' ) );
#73 = DIRECTION ( 'NONE',  ( 1.000000000000000000, 0.000000000000000000, -0.000000000000000000 ) ) ;
#74 = MECHANICAL_CONTEXT ( 'NONE', #12, 'mechanical' ) ;
#75 = FACE_BOUND ( 'NONE', #279, .T. ) ;
#76 =( NAMED_UNIT ( * ) SI_UNIT ( $, .STERADIAN. ) SOLID_ANGLE_UNIT ( ) );
#77 = CARTESIAN_POINT ( 'NONE',  ( -2.100000000000000089, 0.000000000000000000, 128.0000000000000000 ) ) ;
#78 = DATE_AND_TIME ( #291, #183 ) ;
#79 = ORIENTED_EDGE ( 'NONE', *, *, #256, .T. ) ;
#80 = DIRECTION ( 'NONE',  ( 1.000000000000000000, 0.000000000000000000, 0.000000000000000000 ) ) ;
#81 = PERSON_AND_ORGANIZATION ( #277, #219 ) ;
#82 = VECTOR ( 'NONE', #2, 1000.000000000000000 ) ;
#83 = SECURITY_CLASSIFICATION_LEVEL ( 'unclassified' ) ;
#84 = APPROVAL ( #253, 'NEURÈENÝ' ) ;
#85 = SECURITY_CLASSIFICATION ( '', '', #83 ) ;
#86 = AXIS2_PLACEMENT_3D ( 'NONE', #91, #137, #212 ) ;
#87 = APPROVAL ( #52, 'NEURÈENÝ' ) ;
#88 = CARTESIAN_POINT ( 'NONE',  ( 0.000000000000000000, 0.000000000000000000, 128.0000000000000000 ) ) ;
#89 = ADVANCED_FACE ( 'NONE', ( #241 ), #163, .T. ) ;
#90 = ORIENTED_EDGE ( 'NONE', *, *, #37, .T. ) ;
#91 = CARTESIAN_POINT ( 'NONE',  ( 0.000000000000000000, 0.000000000000000000, 3.000000000000000000 ) ) ;
#92 = CARTESIAN_POINT ( 'NONE',  ( -2.100000000000000089, 0.000000000000000000, 128.0000000000000000 ) ) ;
#93 = PERSON_AND_ORGANIZATION ( #277, #219 ) ;
#94 = DIRECTION ( 'NONE',  ( 1.000000000000000000, 0.000000000000000000, 0.000000000000000000 ) ) ;
#95 = DIRECTION ( 'NONE',  ( 1.000000000000000000, 0.000000000000000000, -0.000000000000000000 ) ) ;
#96 = ORIENTED_EDGE ( 'NONE', *, *, #297, .T. ) ;
#97 = CARTESIAN_POINT ( 'NONE',  ( 0.000000000000000000, 0.000000000000000000, 128.0000000000000000 ) ) ;
#98 = CARTESIAN_POINT ( 'NONE',  ( 0.000000000000000000, 0.000000000000000000, 128.0000000000000000 ) ) ;
#99 = ORIENTED_EDGE ( 'NONE', *, *, #140, .T. ) ;
#100 = FACE_OUTER_BOUND ( 'NONE', #50, .T. ) ;
#101 = CARTESIAN_POINT ( 'NONE',  ( 0.000000000000000000, 0.000000000000000000, 3.000000000000000000 ) ) ;
#102 = PRODUCT_DEFINITION ( 'NEZNÁMÝ', '', #111, #13 ) ;
#103 = CARTESIAN_POINT ( 'NONE',  ( 2.100000000000000089, 2.571758278209441957E-16, 128.0000000000000000 ) ) ;
#104 = CARTESIAN_POINT ( 'NONE',  ( 4.000000000000000000, 4.898587196589412829E-16, 0.000000000000000000 ) ) ;
#105 = DIRECTION ( 'NONE',  ( 0.000000000000000000, 0.000000000000000000, 1.000000000000000000 ) ) ;
#106 = PERSON_AND_ORGANIZATION ( #277, #219 ) ;
#107 = PERSON_AND_ORGANIZATION ( #277, #219 ) ;
#108 = ADVANCED_BREP_SHAPE_REPRESENTATION ( '6e3d', ( #9, #257 ), #72 ) ;
#109 = AXIS2_PLACEMENT_3D ( 'NONE', #252, #201, #73 ) ;
#110 = DIRECTION ( 'NONE',  ( 1.000000000000000000, 0.000000000000000000, 0.000000000000000000 ) ) ;
#111 = PRODUCT_DEFINITION_FORMATION_WITH_SPECIFIED_SOURCE ( 'LIBOVOLNÝ', '', #235, .NOT_KNOWN. ) ;
#112 = ORIENTED_EDGE ( 'NONE', *, *, #297, .F. ) ;
#113 = CARTESIAN_POINT ( 'NONE',  ( 4.000000000000000000, 4.898587196589412829E-16, 3.000000000000000000 ) ) ;
#114 = AXIS2_PLACEMENT_3D ( 'NONE', #67, #160, #68 ) ;
#115 = LINE ( 'NONE', #92, #275 ) ;
#116 = COORDINATED_UNIVERSAL_TIME_OFFSET ( 1, 0, .AHEAD. ) ;
#117 = EDGE_CURVE ( 'NONE', #214, #155, #115, .T. ) ;
#118 = EDGE_LOOP ( 'NONE', ( #190, #243 ) ) ;
#119 = PERSON_AND_ORGANIZATION_ROLE ( 'design_owner' ) ;
#120 = PRODUCT_DEFINITION_SHAPE ( 'NONE', 'NONE',  #102 ) ;
#121 = CARTESIAN_POINT ( 'NONE',  ( -4.000000000000000000, 0.000000000000000000, 3.000000000000000000 ) ) ;
#122 = DIRECTION ( 'NONE',  ( -1.000000000000000000, 0.000000000000000000, 0.000000000000000000 ) ) ;
#123 = DIRECTION ( 'NONE',  ( 0.000000000000000000, 0.000000000000000000, 1.000000000000000000 ) ) ;
#124 = APPROVAL_PERSON_ORGANIZATION ( #230, #62, #262 ) ;
#125 = CARTESIAN_POINT ( 'NONE',  ( 0.000000000000000000, 0.000000000000000000, 3.000000000000000000 ) ) ;
#126 = CARTESIAN_POINT ( 'NONE',  ( -2.300000000000000266, 2.816687638038912549E-16, 2.999999999999997335 ) ) ;
#127 = SHAPE_DEFINITION_REPRESENTATION ( #120, #108 ) ;
#128 = CALENDAR_DATE ( 2022, 7, 7 ) ;
#129 = CIRCLE ( 'NONE', #299, 2.100000000000000089 ) ;
#130 = PERSON_AND_ORGANIZATION ( #277, #219 ) ;
#131 = AXIS2_PLACEMENT_3D ( 'NONE', #48, #220, #258 ) ;
#132 = AXIS2_PLACEMENT_3D ( 'NONE', #166, #218, #44 ) ;
#133 = EDGE_CURVE ( 'NONE', #155, #247, #263, .T. ) ;
#134 = CLOSED_SHELL ( 'NONE', ( #289, #57, #158, #89, #156, #302, #274, #244, #41 ) ) ;
#135 = EDGE_LOOP ( 'NONE', ( #71, #217, #251, #79 ) ) ;
#136 = VERTEX_POINT ( 'NONE', #232 ) ;
#137 = DIRECTION ( 'NONE',  ( -0.000000000000000000, -0.000000000000000000, -1.000000000000000000 ) ) ;
#138 = DIRECTION ( 'NONE',  ( 0.000000000000000000, 0.000000000000000000, 1.000000000000000000 ) ) ;
#139 = AXIS2_PLACEMENT_3D ( 'NONE', #43, #19, #39 ) ;
#140 = EDGE_CURVE ( 'NONE', #3, #216, #8, .T. ) ;
#141 = CC_DESIGN_PERSON_AND_ORGANIZATION_ASSIGNMENT ( #29, #69, ( #102 ) ) ;
#142 = DIRECTION ( 'NONE',  ( -1.000000000000000000, 1.224646799147353207E-16, 0.000000000000000000 ) ) ;
#143 = TOROIDAL_SURFACE ( 'NONE', #132, 2.300000000000000266, 0.2000000000000000111 ) ;
#144 = CARTESIAN_POINT ( 'NONE',  ( -4.000000000000000000, 0.000000000000000000, 0.000000000000000000 ) ) ;
#145 = DATE_AND_TIME ( #49, #36 ) ;
#146 = ORIENTED_EDGE ( 'NONE', *, *, #133, .F. ) ;
#147 = CARTESIAN_POINT ( 'NONE',  ( 2.100000000000000089, 2.571758278209441957E-16, 3.199999999999994404 ) ) ;
#148 = APPROVAL_ROLE ( '' ) ;
#149 = CARTESIAN_POINT ( 'NONE',  ( 2.300000000000000266, 0.000000000000000000, 3.199999999999994404 ) ) ;
#150 = DIRECTION ( 'NONE',  ( 0.000000000000000000, 0.000000000000000000, 1.000000000000000000 ) ) ;
#151 = CIRCLE ( 'NONE', #276, 0.2000000000000000944 ) ;
#152 = DIRECTION ( 'NONE',  ( 0.000000000000000000, 0.000000000000000000, 1.000000000000000000 ) ) ;
#153 = DATE_AND_TIME ( #128, #287 ) ;
#154 = AXIS2_PLACEMENT_3D ( 'NONE', #207, #178, #197 ) ;
#155 = VERTEX_POINT ( 'NONE', #204 ) ;
#156 = ADVANCED_FACE ( 'NONE', ( #75, #100 ), #54, .T. ) ;
#157 = CIRCLE ( 'NONE', #237, 4.000000000000000000 ) ;
#158 = ADVANCED_FACE ( 'NONE', ( #173 ), #56, .T. ) ;
#159 = CC_DESIGN_PERSON_AND_ORGANIZATION_ASSIGNMENT ( #106, #273, ( #111 ) ) ;
#160 = DIRECTION ( 'NONE',  ( 0.000000000000000000, 0.000000000000000000, 1.000000000000000000 ) ) ;
#161 = VERTEX_POINT ( 'NONE', #144 ) ;
#162 = CIRCLE ( 'NONE', #154, 2.300000000000000266 ) ;
#163 = CYLINDRICAL_SURFACE ( 'NONE', #139, 4.000000000000000000 ) ;
#164 = APPLICATION_PROTOCOL_DEFINITION ( 'international standard', 'config_control_design', 1994, #63 ) ;
#165 = CARTESIAN_POINT ( 'NONE',  ( -2.300000000000000266, 2.816687638038912549E-16, 3.199999999999994404 ) ) ;
#166 = CARTESIAN_POINT ( 'NONE',  ( 0.000000000000000000, 0.000000000000000000, 3.199999999999994404 ) ) ;
#167 = VECTOR ( 'NONE', #223, 1000.000000000000000 ) ;
#168 = CC_DESIGN_PERSON_AND_ORGANIZATION_ASSIGNMENT ( #282, #119, ( #235 ) ) ;
#169 = ORIENTED_EDGE ( 'NONE', *, *, #34, .T. ) ;
#170 = APPROVAL_DATE_TIME ( #250, #62 ) ;
#171 = EDGE_LOOP ( 'NONE', ( #17, #112, #221, #272 ) ) ;
#172 = CC_DESIGN_APPROVAL ( #62, ( #102 ) ) ;
#173 = FACE_OUTER_BOUND ( 'NONE', #70, .T. ) ;
#174 = CARTESIAN_POINT ( 'NONE',  ( 0.000000000000000000, 0.000000000000000000, 0.000000000000000000 ) ) ;
#175 = ORIENTED_EDGE ( 'NONE', *, *, #185, .F. ) ;
#176 = DIRECTION ( 'NONE',  ( -1.000000000000000000, 0.000000000000000000, 0.000000000000000000 ) ) ;
#177 = AXIS2_PLACEMENT_3D ( 'NONE', #88, #64, #188 ) ;
#178 = DIRECTION ( 'NONE',  ( -0.000000000000000000, -0.000000000000000000, -1.000000000000000000 ) ) ;
#179 = COORDINATED_UNIVERSAL_TIME_OFFSET ( 1, 0, .AHEAD. ) ;
#180 = APPROVAL_DATE_TIME ( #78, #87 ) ;
#181 = EDGE_CURVE ( 'NONE', #214, #3, #129, .T. ) ;
#182 = EDGE_CURVE ( 'NONE', #216, #136, #151, .T. ) ;
#183 = LOCAL_TIME ( 14, 50, 8.000000000000000000, #26 ) ;
#184 = EDGE_CURVE ( 'NONE', #304, #161, #259, .T. ) ;
#185 = EDGE_CURVE ( 'NONE', #136, #247, #162, .T. ) ;
#186 = LOCAL_TIME ( 14, 50, 8.000000000000000000, #195 ) ;
#187 = CARTESIAN_POINT ( 'NONE',  ( 0.000000000000000000, 0.000000000000000000, 3.199999999999994404 ) ) ;
#188 = DIRECTION ( 'NONE',  ( -1.000000000000000000, 0.000000000000000000, 0.000000000000000000 ) ) ;
#189 = UNCERTAINTY_MEASURE_WITH_UNIT (LENGTH_MEASURE( 1.000000000000000082E-05 ), #270, 'distance_accuracy_value', 'NONE');
#190 = ORIENTED_EDGE ( 'NONE', *, *, #181, .T. ) ;
#191 = AXIS2_PLACEMENT_3D ( 'NONE', #248, #152, #25 ) ;
#192 = DIRECTION ( 'NONE',  ( -0.000000000000000000, -0.000000000000000000, -1.000000000000000000 ) ) ;
#193 = CYLINDRICAL_SURFACE ( 'NONE', #40, 2.100000000000000089 ) ;
#194 = ORIENTED_EDGE ( 'NONE', *, *, #184, .F. ) ;
#195 = COORDINATED_UNIVERSAL_TIME_OFFSET ( 1, 0, .AHEAD. ) ;
#196 = ORIENTED_EDGE ( 'NONE', *, *, #182, .T. ) ;
#197 = DIRECTION ( 'NONE',  ( 1.000000000000000000, 0.000000000000000000, 0.000000000000000000 ) ) ;
#198 = FACE_OUTER_BOUND ( 'NONE', #21, .T. ) ;
#199 = ORIENTED_EDGE ( 'NONE', *, *, #61, .T. ) ;
#200 = CC_DESIGN_APPROVAL ( #84, ( #85 ) ) ;
#201 = DIRECTION ( 'NONE',  ( 0.000000000000000000, 0.000000000000000000, 1.000000000000000000 ) ) ;
#202 = DIRECTION ( 'NONE',  ( 0.000000000000000000, 0.000000000000000000, 1.000000000000000000 ) ) ;
#203 = ORIENTED_EDGE ( 'NONE', *, *, #11, .F. ) ;
#204 = CARTESIAN_POINT ( 'NONE',  ( -2.100000000000000089, 0.000000000000000000, 3.199999999999994404 ) ) ;
#205 = ORIENTED_EDGE ( 'NONE', *, *, #208, .T. ) ;
#206 = EDGE_CURVE ( 'NONE', #3, #214, #30, .T. ) ;
#207 = CARTESIAN_POINT ( 'NONE',  ( 0.000000000000000000, 0.000000000000000000, 3.000000000000000000 ) ) ;
#208 = EDGE_CURVE ( 'NONE', #66, #304, #249, .T. ) ;
#209 = PERSON_AND_ORGANIZATION_ROLE ( 'classification_officer' ) ;
#210 = VECTOR ( 'NONE', #23, 1000.000000000000000 ) ;
#211 = COORDINATED_UNIVERSAL_TIME_OFFSET ( 1, 0, .AHEAD. ) ;
#212 = DIRECTION ( 'NONE',  ( 1.000000000000000000, 0.000000000000000000, 0.000000000000000000 ) ) ;
#213 = APPROVAL_PERSON_ORGANIZATION ( #81, #84, #293 ) ;
#214 = VERTEX_POINT ( 'NONE', #77 ) ;
#215 = CIRCLE ( 'NONE', #222, 2.100000000000000089 ) ;
#216 = VERTEX_POINT ( 'NONE', #147 ) ;
#217 = ORIENTED_EDGE ( 'NONE', *, *, #181, .F. ) ;
#218 = DIRECTION ( 'NONE',  ( 0.000000000000000000, 0.000000000000000000, 1.000000000000000000 ) ) ;
#219 = ORGANIZATION ( 'NEURÈENÝ', 'NEURÈENÝ', '' ) ;
#220 = DIRECTION ( 'NONE',  ( 0.000000000000000000, 0.000000000000000000, 1.000000000000000000 ) ) ;
#221 = ORIENTED_EDGE ( 'NONE', *, *, #242, .T. ) ;
#222 = AXIS2_PLACEMENT_3D ( 'NONE', #239, #260, #110 ) ;
#223 = DIRECTION ( 'NONE',  ( -0.000000000000000000, -0.000000000000000000, -1.000000000000000000 ) ) ;
#224 = CARTESIAN_POINT ( 'NONE',  ( 0.000000000000000000, 0.000000000000000000, 0.000000000000000000 ) ) ;
#225 = CC_DESIGN_PERSON_AND_ORGANIZATION_ASSIGNMENT ( #107, #233, ( #111 ) ) ;
#226 = CARTESIAN_POINT ( 'NONE',  ( 0.000000000000000000, 0.000000000000000000, 3.199999999999994404 ) ) ;
#227 = APPLICATION_PROTOCOL_DEFINITION ( 'international standard', 'config_control_design', 1994, #12 ) ;
#228 = CC_DESIGN_SECURITY_CLASSIFICATION ( #85, ( #111 ) ) ;
#229 = CARTESIAN_POINT ( 'NONE',  ( 0.000000000000000000, 0.000000000000000000, 128.0000000000000000 ) ) ;
#230 = PERSON_AND_ORGANIZATION ( #277, #219 ) ;
#231 = EDGE_LOOP ( 'NONE', ( #203, #194 ) ) ;
#232 = CARTESIAN_POINT ( 'NONE',  ( 2.300000000000000266, 0.000000000000000000, 2.999999999999997335 ) ) ;
#233 = PERSON_AND_ORGANIZATION_ROLE ( 'creator' ) ;
#234 = AXIS2_PLACEMENT_3D ( 'NONE', #187, #278, #94 ) ;
#235 = PRODUCT ( '6e3d', '6e3d', '', ( #74 ) ) ;
#236 = LOCAL_TIME ( 14, 50, 8.000000000000000000, #179 ) ;
#237 = AXIS2_PLACEMENT_3D ( 'NONE', #101, #202, #286 ) ;
#238 = ORIENTED_EDGE ( 'NONE', *, *, #256, .F. ) ;
#239 = CARTESIAN_POINT ( 'NONE',  ( 0.000000000000000000, 0.000000000000000000, 3.199999999999994404 ) ) ;
#240 = CARTESIAN_POINT ( 'NONE',  ( -4.000000000000000000, 0.000000000000000000, 3.000000000000000000 ) ) ;
#241 = FACE_OUTER_BOUND ( 'NONE', #171, .T. ) ;
#242 = EDGE_CURVE ( 'NONE', #53, #161, #271, .T. ) ;
#243 = ORIENTED_EDGE ( 'NONE', *, *, #206, .T. ) ;
#244 = ADVANCED_FACE ( 'NONE', ( #285 ), #32, .T. ) ;
#245 = DIRECTION ( 'NONE',  ( 1.000000000000000000, 0.000000000000000000, 0.000000000000000000 ) ) ;
#246 = DATE_TIME_ROLE ( 'creation_date' ) ;
#247 = VERTEX_POINT ( 'NONE', #126 ) ;
#248 = CARTESIAN_POINT ( 'NONE',  ( 0.000000000000000000, 0.000000000000000000, 128.0000000000000000 ) ) ;
#249 = LINE ( 'NONE', #28, #210 ) ;
#250 = DATE_AND_TIME ( #20, #186 ) ;
#251 = ORIENTED_EDGE ( 'NONE', *, *, #117, .T. ) ;
#252 = CARTESIAN_POINT ( 'NONE',  ( 0.000000000000000000, 0.000000000000000000, 3.000000000000000000 ) ) ;
#253 = APPROVAL_STATUS ( 'not_yet_approved' ) ;
#254 = CALENDAR_DATE ( 2022, 7, 7 ) ;
#255 = TOROIDAL_SURFACE ( 'NONE', #234, 2.300000000000000266, 0.2000000000000000111 ) ;
#256 = EDGE_CURVE ( 'NONE', #155, #216, #5, .T. ) ;
#257 = AXIS2_PLACEMENT_3D ( 'NONE', #174, #150, #55 ) ;
#258 = DIRECTION ( 'NONE',  ( 1.000000000000000000, 0.000000000000000000, 0.000000000000000000 ) ) ;
#259 = CIRCLE ( 'NONE', #296, 4.000000000000000000 ) ;
#260 = DIRECTION ( 'NONE',  ( 0.000000000000000000, 0.000000000000000000, 1.000000000000000000 ) ) ;
#261 = ORIENTED_EDGE ( 'NONE', *, *, #61, .F. ) ;
#262 = APPROVAL_ROLE ( '' ) ;
#263 = CIRCLE ( 'NONE', #298, 0.2000000000000000944 ) ;
#264 = CYLINDRICAL_SURFACE ( 'NONE', #177, 2.100000000000000089 ) ;
#265 = CARTESIAN_POINT ( 'NONE',  ( 2.100000000000000089, 2.571758278209441957E-16, 128.0000000000000000 ) ) ;
#266 = DIRECTION ( 'NONE',  ( -0.000000000000000000, -0.000000000000000000, -1.000000000000000000 ) ) ;
#267 = APPROVAL_STATUS ( 'not_yet_approved' ) ;
#268 = ORIENTED_EDGE ( 'NONE', *, *, #37, .F. ) ;
#269 = DIRECTION ( 'NONE',  ( 1.000000000000000000, 0.000000000000000000, 0.000000000000000000 ) ) ;
#270 =( LENGTH_UNIT ( ) NAMED_UNIT ( * ) SI_UNIT ( .MILLI., .METRE. ) );
#271 = LINE ( 'NONE', #121, #82 ) ;
#272 = ORIENTED_EDGE ( 'NONE', *, *, #11, .T. ) ;
#273 = PERSON_AND_ORGANIZATION_ROLE ( 'design_supplier' ) ;
#274 = ADVANCED_FACE ( 'NONE', ( #24 ), #193, .T. ) ;
#275 = VECTOR ( 'NONE', #192, 1000.000000000000000 ) ;
#276 = AXIS2_PLACEMENT_3D ( 'NONE', #149, #6, #51 ) ;
#277 = PERSON ( 'NEURÈENÝ', 'NEURÈENÝ', 'NEURÈENÝ', ('NEURÈENÝ'), ('NEURÈENÝ'), ('NEURÈENÝ') ) ;
#278 = DIRECTION ( 'NONE',  ( 0.000000000000000000, 0.000000000000000000, 1.000000000000000000 ) ) ;
#279 = EDGE_LOOP ( 'NONE', ( #281, #90 ) ) ;
#280 = ORIENTED_EDGE ( 'NONE', *, *, #242, .F. ) ;
#281 = ORIENTED_EDGE ( 'NONE', *, *, #185, .T. ) ;
#282 = PERSON_AND_ORGANIZATION ( #277, #219 ) ;
#283 = PRODUCT_RELATED_PRODUCT_CATEGORY ( 'detail', '', ( #235 ) ) ;
#284 = EDGE_LOOP ( 'NONE', ( #146, #14, #196, #268 ) ) ;
#285 = FACE_OUTER_BOUND ( 'NONE', #118, .T. ) ;
#286 = DIRECTION ( 'NONE',  ( 1.000000000000000000, 0.000000000000000000, 0.000000000000000000 ) ) ;
#287 = LOCAL_TIME ( 14, 50, 8.000000000000000000, #211 ) ;
#288 = APPROVAL_PERSON_ORGANIZATION ( #93, #87, #148 ) ;
#289 = ADVANCED_FACE ( 'NONE', ( #198 ), #143, .F. ) ;
#290 = DIRECTION ( 'NONE',  ( 0.000000000000000000, 0.000000000000000000, 1.000000000000000000 ) ) ;
#291 = CALENDAR_DATE ( 2022, 7, 7 ) ;
#292 = CARTESIAN_POINT ( 'NONE',  ( 0.000000000000000000, 0.000000000000000000, 0.000000000000000000 ) ) ;
#293 = APPROVAL_ROLE ( '' ) ;
#294 = DIRECTION ( 'NONE',  ( 0.000000000000000000, 0.000000000000000000, 1.000000000000000000 ) ) ;
#295 = DATE_TIME_ROLE ( 'classification_date' ) ;
#296 = AXIS2_PLACEMENT_3D ( 'NONE', #292, #290, #269 ) ;
#297 = EDGE_CURVE ( 'NONE', #53, #66, #157, .T. ) ;
#298 = AXIS2_PLACEMENT_3D ( 'NONE', #165, #45, #142 ) ;
#299 = AXIS2_PLACEMENT_3D ( 'NONE', #229, #105, #80 ) ;
#300 = ORIENTED_EDGE ( 'NONE', *, *, #206, .F. ) ;
#301 = EDGE_LOOP ( 'NONE', ( #300, #99, #169, #59 ) ) ;
#302 = ADVANCED_FACE ( 'NONE', ( #306 ), #7, .F. ) ;
#303 = AXIS2_PLACEMENT_3D ( 'NONE', #224, #138, #95 ) ;
#304 = VERTEX_POINT ( 'NONE', #104 ) ;
#305 = FACE_OUTER_BOUND ( 'NONE', #284, .T. ) ;
#306 = FACE_OUTER_BOUND ( 'NONE', #231, .T. ) ;
#307 = ORIENTED_EDGE ( 'NONE', *, *, #184, .T. ) ;
ENDSEC;
END-ISO-10303-21;
