ISO-10303-21;
HEADER;
FILE_DESCRIPTION (( 'STEP AP203' ),
    '1' );
FILE_NAME ('9dcf.STEP',
    '2022-07-07T12:34:36',
    ( '' ),
    ( '' ),
    'SwSTEP 2.0',
    'SolidWorks 2019',
    '' );
FILE_SCHEMA (( 'CONFIG_CONTROL_DESIGN' ));
ENDSEC;

DATA;
#1 = ORIENTED_EDGE ( 'NONE', *, *, #236, .T. ) ;
#2 = EDGE_CURVE ( 'NONE', #81, #60, #139, .T. ) ;
#3 = AXIS2_PLACEMENT_3D ( 'NONE', #231, #233, #69 ) ;
#4 = AXIS2_PLACEMENT_3D ( 'NONE', #204, #140, #109 ) ;
#5 = EDGE_CURVE ( 'NONE', #186, #78, #193, .T. ) ;
#6 = AXIS2_PLACEMENT_3D ( 'NONE', #161, #82, #181 ) ;
#7 = ORIENTED_EDGE ( 'NONE', *, *, #172, .F. ) ;
#8 = PRODUCT_RELATED_PRODUCT_CATEGORY ( 'detail', '', ( #223 ) ) ;
#9 = CALENDAR_DATE ( 2022, 7, 7 ) ;
#10 = APPROVAL_PERSON_ORGANIZATION ( #104, #120, #37 ) ;
#11 = ADVANCED_FACE ( 'NONE', ( #108 ), #306, .T. ) ;
#12 = AXIS2_PLACEMENT_3D ( 'NONE', #48, #265, #145 ) ;
#13 = DATE_AND_TIME ( #194, #174 ) ;
#14 = EDGE_CURVE ( 'NONE', #186, #154, #302, .T. ) ;
#15 = CARTESIAN_POINT ( 'NONE',  ( 0.000000000000000000, 0.000000000000000000, 5.000000000000000000 ) ) ;
#16 = PERSON_AND_ORGANIZATION ( #246, #121 ) ;
#17 = DIRECTION ( 'NONE',  ( -1.000000000000000000, 1.224646799147353454E-16, 0.000000000000000000 ) ) ;
#18 = ORIENTED_EDGE ( 'NONE', *, *, #52, .T. ) ;
#19 = DIRECTION ( 'NONE',  ( 0.000000000000000000, 0.000000000000000000, 1.000000000000000000 ) ) ;
#20 = PERSON_AND_ORGANIZATION_ROLE ( 'design_owner' ) ;
#21 = CIRCLE ( 'NONE', #188, 7.000000000000000000 ) ;
#22 = DIRECTION ( 'NONE',  ( 0.000000000000000000, 0.000000000000000000, 1.000000000000000000 ) ) ;
#23 = CC_DESIGN_PERSON_AND_ORGANIZATION_ASSIGNMENT ( #50, #187, ( #105 ) ) ;
#24 = DIRECTION ( 'NONE',  ( -0.000000000000000000, -0.000000000000000000, -1.000000000000000000 ) ) ;
#25 = DIRECTION ( 'NONE',  ( -1.000000000000000000, 0.000000000000000000, 0.000000000000000000 ) ) ;
#26 = CARTESIAN_POINT ( 'NONE',  ( 0.000000000000000000, 0.000000000000000000, 0.000000000000000000 ) ) ;
#27 = DIRECTION ( 'NONE',  ( 1.000000000000000000, 0.000000000000000000, 0.000000000000000000 ) ) ;
#28 = DIRECTION ( 'NONE',  ( 1.000000000000000000, 0.000000000000000000, 0.000000000000000000 ) ) ;
#29 = DIRECTION ( 'NONE',  ( 1.000000000000000000, 0.000000000000000000, 0.000000000000000000 ) ) ;
#30 = CLOSED_SHELL ( 'NONE', ( #122, #77, #235, #98, #156, #171, #11, #261, #209 ) ) ;
#31 = EDGE_CURVE ( 'NONE', #154, #232, #39, .T. ) ;
#32 = DIRECTION ( 'NONE',  ( 0.000000000000000000, 0.000000000000000000, 1.000000000000000000 ) ) ;
#33 = ORIENTED_EDGE ( 'NONE', *, *, #5, .F. ) ;
#34 = CC_DESIGN_DATE_AND_TIME_ASSIGNMENT ( #150, #226, ( #259 ) ) ;
#35 = ORIENTED_EDGE ( 'NONE', *, *, #5, .T. ) ;
#36 = AXIS2_PLACEMENT_3D ( 'NONE', #159, #19, #205 ) ;
#37 = APPROVAL_ROLE ( '' ) ;
#38 = CYLINDRICAL_SURFACE ( 'NONE', #249, 7.000000000000000000 ) ;
#39 = CIRCLE ( 'NONE', #70, 4.000000000000000000 ) ;
#40 = LOCAL_TIME ( 14, 34, 36.00000000000000000, #152 ) ;
#41 = PRODUCT_DEFINITION_SHAPE ( 'NONE', 'NONE',  #105 ) ;
#42 = FACE_OUTER_BOUND ( 'NONE', #44, .T. ) ;
#43 = APPROVAL_STATUS ( 'not_yet_approved' ) ;
#44 = EDGE_LOOP ( 'NONE', ( #218, #99 ) ) ;
#45 = CC_DESIGN_DATE_AND_TIME_ASSIGNMENT ( #75, #274, ( #105 ) ) ;
#46 = FACE_OUTER_BOUND ( 'NONE', #294, .T. ) ;
#47 = TOROIDAL_SURFACE ( 'NONE', #36, 4.200000000000000178, 0.2000000000000000111 ) ;
#48 = CARTESIAN_POINT ( 'NONE',  ( 0.000000000000000000, 0.000000000000000000, 0.000000000000000000 ) ) ;
#49 = CARTESIAN_POINT ( 'NONE',  ( -4.000000000000000000, 0.000000000000000000, 165.0000000000000000 ) ) ;
#50 = PERSON_AND_ORGANIZATION ( #246, #121 ) ;
#51 = DIRECTION ( 'NONE',  ( -0.000000000000000000, -0.000000000000000000, -1.000000000000000000 ) ) ;
#52 = EDGE_CURVE ( 'NONE', #78, #186, #241, .T. ) ;
#53 = ORIENTED_EDGE ( 'NONE', *, *, #292, .T. ) ;
#54 = EDGE_CURVE ( 'NONE', #60, #81, #147, .T. ) ;
#55 = APPLICATION_PROTOCOL_DEFINITION ( 'international standard', 'config_control_design', 1994, #268 ) ;
#56 = AXIS2_PLACEMENT_3D ( 'NONE', #71, #162, #25 ) ;
#57 = LOCAL_TIME ( 14, 34, 36.00000000000000000, #244 ) ;
#58 = VECTOR ( 'NONE', #68, 1000.000000000000000 ) ;
#59 = SECURITY_CLASSIFICATION_LEVEL ( 'unclassified' ) ;
#60 = VERTEX_POINT ( 'NONE', #238 ) ;
#61 = APPROVAL_DATE_TIME ( #13, #120 ) ;
#62 = CARTESIAN_POINT ( 'NONE',  ( -4.200000000000000178, 5.143516556418882928E-16, 5.000000000000005329 ) ) ;
#63 = CARTESIAN_POINT ( 'NONE',  ( -4.200000000000000178, 5.143516556418882928E-16, 5.200000000000009948 ) ) ;
#64 = CC_DESIGN_PERSON_AND_ORGANIZATION_ASSIGNMENT ( #102, #199, ( #285 ) ) ;
#65 = ORIENTED_EDGE ( 'NONE', *, *, #299, .F. ) ;
#66 = CARTESIAN_POINT ( 'NONE',  ( 0.000000000000000000, 0.000000000000000000, 5.000000000000000000 ) ) ;
#67 = ORIENTED_EDGE ( 'NONE', *, *, #236, .F. ) ;
#68 = DIRECTION ( 'NONE',  ( -0.000000000000000000, -0.000000000000000000, -1.000000000000000000 ) ) ;
#69 = DIRECTION ( 'NONE',  ( 0.000000000000000000, 0.000000000000000000, -1.000000000000000000 ) ) ;
#70 = AXIS2_PLACEMENT_3D ( 'NONE', #86, #210, #228 ) ;
#71 = CARTESIAN_POINT ( 'NONE',  ( 0.000000000000000000, 0.000000000000000000, 165.0000000000000000 ) ) ;
#72 =( LENGTH_UNIT ( ) NAMED_UNIT ( * ) SI_UNIT ( .MILLI., .METRE. ) );
#73 = EDGE_CURVE ( 'NONE', #137, #60, #111, .T. ) ;
#74 = EDGE_LOOP ( 'NONE', ( #123, #151, #256, #67 ) ) ;
#75 = DATE_AND_TIME ( #264, #201 ) ;
#76 = AXIS2_PLACEMENT_3D ( 'NONE', #180, #304, #29 ) ;
#77 = ADVANCED_FACE ( 'NONE', ( #94 ), #212, .T. ) ;
#78 = VERTEX_POINT ( 'NONE', #49 ) ;
#79 = ADVANCED_BREP_SHAPE_REPRESENTATION ( '9dcf', ( #240, #297 ), #263 ) ;
#80 = CC_DESIGN_APPROVAL ( #120, ( #285 ) ) ;
#81 = VERTEX_POINT ( 'NONE', #135 ) ;
#82 = DIRECTION ( 'NONE',  ( -0.000000000000000000, -0.000000000000000000, -1.000000000000000000 ) ) ;
#83 = DIRECTION ( 'NONE',  ( 1.000000000000000000, 0.000000000000000000, 0.000000000000000000 ) ) ;
#84 = AXIS2_PLACEMENT_3D ( 'NONE', #26, #301, #133 ) ;
#85 = AXIS2_PLACEMENT_3D ( 'NONE', #203, #252, #178 ) ;
#86 = CARTESIAN_POINT ( 'NONE',  ( 0.000000000000000000, 0.000000000000000000, 5.200000000000009948 ) ) ;
#87 = DIRECTION ( 'NONE',  ( 0.000000000000000000, 0.000000000000000000, 1.000000000000000000 ) ) ;
#88 = DIRECTION ( 'NONE',  ( -0.000000000000000000, -0.000000000000000000, -1.000000000000000000 ) ) ;
#89 = ORIENTED_EDGE ( 'NONE', *, *, #31, .F. ) ;
#90 = DIRECTION ( 'NONE',  ( 0.000000000000000000, 0.000000000000000000, 1.000000000000000000 ) ) ;
#91 = DIRECTION ( 'NONE',  ( 1.000000000000000000, 0.000000000000000000, -0.000000000000000000 ) ) ;
#92 = ORIENTED_EDGE ( 'NONE', *, *, #196, .F. ) ;
#93 = MECHANICAL_CONTEXT ( 'NONE', #126, 'mechanical' ) ;
#94 = FACE_OUTER_BOUND ( 'NONE', #245, .T. ) ;
#95 = AXIS2_PLACEMENT_3D ( 'NONE', #230, #24, #237 ) ;
#96 = CIRCLE ( 'NONE', #276, 7.000000000000000000 ) ;
#97 = EDGE_CURVE ( 'NONE', #214, #262, #169, .T. ) ;
#98 = ADVANCED_FACE ( 'NONE', ( #278 ), #38, .T. ) ;
#99 = ORIENTED_EDGE ( 'NONE', *, *, #299, .T. ) ;
#100 = SHAPE_DEFINITION_REPRESENTATION ( #41, #79 ) ;
#101 = ORIENTED_EDGE ( 'NONE', *, *, #134, .T. ) ;
#102 = PERSON_AND_ORGANIZATION ( #246, #121 ) ;
#103 = ORIENTED_EDGE ( 'NONE', *, *, #31, .T. ) ;
#104 = PERSON_AND_ORGANIZATION ( #246, #121 ) ;
#105 = PRODUCT_DEFINITION ( 'NEZNÁMÝ', '', #285, #270 ) ;
#106 = CARTESIAN_POINT ( 'NONE',  ( 0.000000000000000000, 0.000000000000000000, 5.000000000000000000 ) ) ;
#107 = DIRECTION ( 'NONE',  ( -1.000000000000000000, 0.000000000000000000, 0.000000000000000000 ) ) ;
#108 = FACE_OUTER_BOUND ( 'NONE', #160, .T. ) ;
#109 = DIRECTION ( 'NONE',  ( -1.000000000000000000, 0.000000000000000000, 0.000000000000000000 ) ) ;
#110 = APPROVAL_STATUS ( 'not_yet_approved' ) ;
#111 = LINE ( 'NONE', #202, #220 ) ;
#112 = DIRECTION ( 'NONE',  ( 1.000000000000000000, 0.000000000000000000, 0.000000000000000000 ) ) ;
#113 = CARTESIAN_POINT ( 'NONE',  ( 0.000000000000000000, 0.000000000000000000, 0.000000000000000000 ) ) ;
#114 = ORIENTED_EDGE ( 'NONE', *, *, #54, .T. ) ;
#115 = COORDINATED_UNIVERSAL_TIME_OFFSET ( 1, 0, .AHEAD. ) ;
#116 = CARTESIAN_POINT ( 'NONE',  ( 4.000000000000000000, 4.898587196589412829E-16, 165.0000000000000000 ) ) ;
#117 = AXIS2_PLACEMENT_3D ( 'NONE', #63, #222, #17 ) ;
#118 = DIRECTION ( 'NONE',  ( 0.000000000000000000, 0.000000000000000000, 1.000000000000000000 ) ) ;
#119 = PERSON_AND_ORGANIZATION ( #246, #121 ) ;
#120 = APPROVAL ( #43, 'NEURÈENÝ' ) ;
#121 = ORGANIZATION ( 'NEURÈENÝ', 'NEURÈENÝ', '' ) ;
#122 = ADVANCED_FACE ( 'NONE', ( #305 ), #47, .F. ) ;
#123 = ORIENTED_EDGE ( 'NONE', *, *, #134, .F. ) ;
#124 = VECTOR ( 'NONE', #286, 1000.000000000000000 ) ;
#125 = ORIENTED_EDGE ( 'NONE', *, *, #2, .F. ) ;
#126 = APPLICATION_CONTEXT ( 'configuration controlled 3d designs of mechanical parts and assemblies' ) ;
#127 = APPROVAL_DATE_TIME ( #129, #128 ) ;
#128 = APPROVAL ( #158, 'NEURÈENÝ' ) ;
#129 = DATE_AND_TIME ( #9, #57 ) ;
#130 = ORIENTED_EDGE ( 'NONE', *, *, #155, .T. ) ;
#131 = EDGE_LOOP ( 'NONE', ( #18, #35 ) ) ;
#132 = AXIS2_PLACEMENT_3D ( 'NONE', #157, #90, #250 ) ;
#133 = DIRECTION ( 'NONE',  ( 1.000000000000000000, 0.000000000000000000, -0.000000000000000000 ) ) ;
#134 = EDGE_CURVE ( 'NONE', #232, #154, #149, .T. ) ;
#135 = CARTESIAN_POINT ( 'NONE',  ( -7.000000000000000000, 0.000000000000000000, 0.000000000000000000 ) ) ;
#136 = CARTESIAN_POINT ( 'NONE',  ( 7.000000000000000000, 8.572527594031473190E-16, 5.000000000000000000 ) ) ;
#137 = VERTEX_POINT ( 'NONE', #136 ) ;
#138 = CYLINDRICAL_SURFACE ( 'NONE', #95, 7.000000000000000000 ) ;
#139 = CIRCLE ( 'NONE', #76, 7.000000000000000000 ) ;
#140 = DIRECTION ( 'NONE',  ( -0.000000000000000000, -0.000000000000000000, -1.000000000000000000 ) ) ;
#141 = PLANE ( 'NONE',  #85 ) ;
#142 = CARTESIAN_POINT ( 'NONE',  ( 0.000000000000000000, 0.000000000000000000, 5.000000000000000000 ) ) ;
#143 = ORIENTED_EDGE ( 'NONE', *, *, #2, .T. ) ;
#144 = DIRECTION ( 'NONE',  ( 0.000000000000000000, 0.000000000000000000, 1.000000000000000000 ) ) ;
#145 = DIRECTION ( 'NONE',  ( 1.000000000000000000, 0.000000000000000000, 0.000000000000000000 ) ) ;
#146 = PLANE ( 'NONE',  #293 ) ;
#147 = CIRCLE ( 'NONE', #12, 7.000000000000000000 ) ;
#148 = EDGE_CURVE ( 'NONE', #232, #214, #215, .T. ) ;
#149 = CIRCLE ( 'NONE', #132, 4.000000000000000000 ) ;
#150 = DATE_AND_TIME ( #251, #40 ) ;
#151 = ORIENTED_EDGE ( 'NONE', *, *, #148, .T. ) ;
#152 = COORDINATED_UNIVERSAL_TIME_OFFSET ( 1, 0, .AHEAD. ) ;
#153 = ORIENTED_EDGE ( 'NONE', *, *, #97, .T. ) ;
#154 = VERTEX_POINT ( 'NONE', #303 ) ;
#155 = EDGE_CURVE ( 'NONE', #262, #214, #243, .T. ) ;
#156 = ADVANCED_FACE ( 'NONE', ( #200, #42 ), #141, .T. ) ;
#157 = CARTESIAN_POINT ( 'NONE',  ( 0.000000000000000000, 0.000000000000000000, 5.200000000000009948 ) ) ;
#158 = APPROVAL_STATUS ( 'not_yet_approved' ) ;
#159 = CARTESIAN_POINT ( 'NONE',  ( 0.000000000000000000, 0.000000000000000000, 5.200000000000009948 ) ) ;
#160 = EDGE_LOOP ( 'NONE', ( #275, #190, #295, #101 ) ) ;
#161 = CARTESIAN_POINT ( 'NONE',  ( 0.000000000000000000, 0.000000000000000000, 5.000000000000000000 ) ) ;
#162 = DIRECTION ( 'NONE',  ( -0.000000000000000000, -0.000000000000000000, -1.000000000000000000 ) ) ;
#163 = FACE_OUTER_BOUND ( 'NONE', #167, .T. ) ;
#164 =( NAMED_UNIT ( * ) SI_UNIT ( $, .STERADIAN. ) SOLID_ANGLE_UNIT ( ) );
#165 = ORIENTED_EDGE ( 'NONE', *, *, #73, .F. ) ;
#166 = CALENDAR_DATE ( 2022, 7, 7 ) ;
#167 = EDGE_LOOP ( 'NONE', ( #125, #296 ) ) ;
#168 = FACE_OUTER_BOUND ( 'NONE', #131, .T. ) ;
#169 = CIRCLE ( 'NONE', #269, 4.200000000000000178 ) ;
#170 = APPROVAL_PERSON_ORGANIZATION ( #217, #128, #247 ) ;
#171 = ADVANCED_FACE ( 'NONE', ( #163 ), #257, .F. ) ;
#172 = EDGE_CURVE ( 'NONE', #242, #137, #21, .T. ) ;
#173 = CARTESIAN_POINT ( 'NONE',  ( -4.000000000000000000, 0.000000000000000000, 165.0000000000000000 ) ) ;
#174 = LOCAL_TIME ( 14, 34, 36.00000000000000000, #273 ) ;
#175 = PERSON_AND_ORGANIZATION_ROLE ( 'creator' ) ;
#176 = CARTESIAN_POINT ( 'NONE',  ( 4.000000000000000000, 4.898587196589412829E-16, 165.0000000000000000 ) ) ;
#177 = CARTESIAN_POINT ( 'NONE',  ( 0.000000000000000000, 0.000000000000000000, 165.0000000000000000 ) ) ;
#178 = DIRECTION ( 'NONE',  ( 1.000000000000000000, 0.000000000000000000, -0.000000000000000000 ) ) ;
#179 = DATE_AND_TIME ( #166, #192 ) ;
#180 = CARTESIAN_POINT ( 'NONE',  ( 0.000000000000000000, 0.000000000000000000, 0.000000000000000000 ) ) ;
#181 = DIRECTION ( 'NONE',  ( 1.000000000000000000, 0.000000000000000000, 0.000000000000000000 ) ) ;
#182 = APPLICATION_PROTOCOL_DEFINITION ( 'international standard', 'config_control_design', 1994, #126 ) ;
#183 = EDGE_LOOP ( 'NONE', ( #130, #153 ) ) ;
#184 = AXIS2_PLACEMENT_3D ( 'NONE', #177, #22, #282 ) ;
#185 = CARTESIAN_POINT ( 'NONE',  ( -7.000000000000000000, 0.000000000000000000, 5.000000000000000000 ) ) ;
#186 = VERTEX_POINT ( 'NONE', #176 ) ;
#187 = PERSON_AND_ORGANIZATION_ROLE ( 'creator' ) ;
#188 = AXIS2_PLACEMENT_3D ( 'NONE', #15, #198, #83 ) ;
#189 = CC_DESIGN_PERSON_AND_ORGANIZATION_ASSIGNMENT ( #221, #300, ( #259 ) ) ;
#190 = ORIENTED_EDGE ( 'NONE', *, *, #52, .F. ) ;
#191 = VECTOR ( 'NONE', #88, 1000.000000000000000 ) ;
#192 = LOCAL_TIME ( 14, 34, 36.00000000000000000, #211 ) ;
#193 = CIRCLE ( 'NONE', #290, 4.000000000000000000 ) ;
#194 = CALENDAR_DATE ( 2022, 7, 7 ) ;
#195 = ORIENTED_EDGE ( 'NONE', *, *, #97, .F. ) ;
#196 = EDGE_CURVE ( 'NONE', #78, #232, #283, .T. ) ;
#197 = CC_DESIGN_SECURITY_CLASSIFICATION ( #259, ( #285 ) ) ;
#198 = DIRECTION ( 'NONE',  ( 0.000000000000000000, 0.000000000000000000, 1.000000000000000000 ) ) ;
#199 = PERSON_AND_ORGANIZATION_ROLE ( 'design_supplier' ) ;
#200 = FACE_BOUND ( 'NONE', #183, .T. ) ;
#201 = LOCAL_TIME ( 14, 34, 36.00000000000000000, #115 ) ;
#202 = CARTESIAN_POINT ( 'NONE',  ( 7.000000000000000000, 8.572527594031473190E-16, 5.000000000000000000 ) ) ;
#203 = CARTESIAN_POINT ( 'NONE',  ( 0.000000000000000000, 0.000000000000000000, 5.000000000000000000 ) ) ;
#204 = CARTESIAN_POINT ( 'NONE',  ( 0.000000000000000000, 0.000000000000000000, 165.0000000000000000 ) ) ;
#205 = DIRECTION ( 'NONE',  ( 1.000000000000000000, 0.000000000000000000, 0.000000000000000000 ) ) ;
#206 = CARTESIAN_POINT ( 'NONE',  ( -7.000000000000000000, 0.000000000000000000, 5.000000000000000000 ) ) ;
#207 = ORIENTED_EDGE ( 'NONE', *, *, #148, .F. ) ;
#208 = DIRECTION ( 'NONE',  ( 1.000000000000000000, 0.000000000000000000, 0.000000000000000000 ) ) ;
#209 = ADVANCED_FACE ( 'NONE', ( #277 ), #229, .F. ) ;
#210 = DIRECTION ( 'NONE',  ( 0.000000000000000000, 0.000000000000000000, 1.000000000000000000 ) ) ;
#211 = COORDINATED_UNIVERSAL_TIME_OFFSET ( 1, 0, .AHEAD. ) ;
#212 = CYLINDRICAL_SURFACE ( 'NONE', #4, 4.000000000000000000 ) ;
#213 = UNCERTAINTY_MEASURE_WITH_UNIT (LENGTH_MEASURE( 1.000000000000000082E-05 ), #72, 'distance_accuracy_value', 'NONE');
#214 = VERTEX_POINT ( 'NONE', #62 ) ;
#215 = CIRCLE ( 'NONE', #117, 0.1999999999999996503 ) ;
#216 = ORIENTED_EDGE ( 'NONE', *, *, #292, .F. ) ;
#217 = PERSON_AND_ORGANIZATION ( #246, #121 ) ;
#218 = ORIENTED_EDGE ( 'NONE', *, *, #172, .T. ) ;
#219 = CC_DESIGN_APPROVAL ( #248, ( #105 ) ) ;
#220 = VECTOR ( 'NONE', #51, 1000.000000000000000 ) ;
#221 = PERSON_AND_ORGANIZATION ( #246, #121 ) ;
#222 = DIRECTION ( 'NONE',  ( 1.224646799147353207E-16, 1.000000000000000000, -0.000000000000000000 ) ) ;
#223 = PRODUCT ( '9dcf', '9dcf', '', ( #93 ) ) ;
#224 = DIRECTION ( 'NONE',  ( -0.000000000000000000, -0.000000000000000000, -1.000000000000000000 ) ) ;
#225 = CARTESIAN_POINT ( 'NONE',  ( 0.000000000000000000, 0.000000000000000000, 165.0000000000000000 ) ) ;
#226 = DATE_TIME_ROLE ( 'classification_date' ) ;
#227 = CARTESIAN_POINT ( 'NONE',  ( 0.000000000000000000, 0.000000000000000000, 5.200000000000009948 ) ) ;
#228 = DIRECTION ( 'NONE',  ( 1.000000000000000000, 0.000000000000000000, 0.000000000000000000 ) ) ;
#229 = TOROIDAL_SURFACE ( 'NONE', #271, 4.200000000000000178, 0.2000000000000000111 ) ;
#230 = CARTESIAN_POINT ( 'NONE',  ( 0.000000000000000000, 0.000000000000000000, 5.000000000000000000 ) ) ;
#231 = CARTESIAN_POINT ( 'NONE',  ( 4.200000000000000178, 0.000000000000000000, 5.200000000000009948 ) ) ;
#232 = VERTEX_POINT ( 'NONE', #254 ) ;
#233 = DIRECTION ( 'NONE',  ( 0.000000000000000000, -1.000000000000000000, 0.000000000000000000 ) ) ;
#234 = EDGE_LOOP ( 'NONE', ( #165, #7, #53, #143 ) ) ;
#235 = ADVANCED_FACE ( 'NONE', ( #46 ), #138, .T. ) ;
#236 = EDGE_CURVE ( 'NONE', #154, #262, #289, .T. ) ;
#237 = DIRECTION ( 'NONE',  ( -1.000000000000000000, 0.000000000000000000, 0.000000000000000000 ) ) ;
#238 = CARTESIAN_POINT ( 'NONE',  ( 7.000000000000000000, 8.572527594031473190E-16, 0.000000000000000000 ) ) ;
#239 = DIRECTION ( 'NONE',  ( 0.000000000000000000, 0.000000000000000000, 1.000000000000000000 ) ) ;
#240 = MANIFOLD_SOLID_BREP ( 'Zaoblit1', #30 ) ;
#241 = CIRCLE ( 'NONE', #184, 4.000000000000000000 ) ;
#242 = VERTEX_POINT ( 'NONE', #185 ) ;
#243 = CIRCLE ( 'NONE', #6, 4.200000000000000178 ) ;
#244 = COORDINATED_UNIVERSAL_TIME_OFFSET ( 1, 0, .AHEAD. ) ;
#245 = EDGE_LOOP ( 'NONE', ( #33, #253, #103, #92 ) ) ;
#246 = PERSON ( 'NEURÈENÝ', 'NEURÈENÝ', 'NEURÈENÝ', ('NEURÈENÝ'), ('NEURÈENÝ'), ('NEURÈENÝ') ) ;
#247 = APPROVAL_ROLE ( '' ) ;
#248 = APPROVAL ( #110, 'NEURÈENÝ' ) ;
#249 = AXIS2_PLACEMENT_3D ( 'NONE', #106, #224, #107 ) ;
#250 = DIRECTION ( 'NONE',  ( 1.000000000000000000, 0.000000000000000000, 0.000000000000000000 ) ) ;
#251 = CALENDAR_DATE ( 2022, 7, 7 ) ;
#252 = DIRECTION ( 'NONE',  ( 0.000000000000000000, 0.000000000000000000, 1.000000000000000000 ) ) ;
#253 = ORIENTED_EDGE ( 'NONE', *, *, #14, .T. ) ;
#254 = CARTESIAN_POINT ( 'NONE',  ( -4.000000000000000000, 0.000000000000000000, 5.200000000000009948 ) ) ;
#255 = CARTESIAN_POINT ( 'NONE',  ( 0.000000000000000000, 0.000000000000000000, 165.0000000000000000 ) ) ;
#256 = ORIENTED_EDGE ( 'NONE', *, *, #155, .F. ) ;
#257 = PLANE ( 'NONE',  #84 ) ;
#258 = CARTESIAN_POINT ( 'NONE',  ( 4.200000000000000178, 0.000000000000000000, 5.000000000000005329 ) ) ;
#259 = SECURITY_CLASSIFICATION ( '', '', #59 ) ;
#260 = CC_DESIGN_PERSON_AND_ORGANIZATION_ASSIGNMENT ( #119, #20, ( #223 ) ) ;
#261 = ADVANCED_FACE ( 'NONE', ( #168 ), #146, .T. ) ;
#262 = VERTEX_POINT ( 'NONE', #258 ) ;
#263 =( GEOMETRIC_REPRESENTATION_CONTEXT ( 3 ) GLOBAL_UNCERTAINTY_ASSIGNED_CONTEXT ( ( #213 ) ) GLOBAL_UNIT_ASSIGNED_CONTEXT ( ( #72, #307, #164 ) ) REPRESENTATION_CONTEXT ( 'NONE', 'WORKASPACE' ) );
#264 = CALENDAR_DATE ( 2022, 7, 7 ) ;
#265 = DIRECTION ( 'NONE',  ( 0.000000000000000000, 0.000000000000000000, 1.000000000000000000 ) ) ;
#266 = LINE ( 'NONE', #206, #191 ) ;
#267 = APPROVAL_PERSON_ORGANIZATION ( #284, #248, #287 ) ;
#268 = APPLICATION_CONTEXT ( 'configuration controlled 3d designs of mechanical parts and assemblies' ) ;
#269 = AXIS2_PLACEMENT_3D ( 'NONE', #66, #298, #112 ) ;
#270 = DESIGN_CONTEXT ( 'detailed design', #268, 'design' ) ;
#271 = AXIS2_PLACEMENT_3D ( 'NONE', #227, #87, #280 ) ;
#272 = CC_DESIGN_PERSON_AND_ORGANIZATION_ASSIGNMENT ( #16, #175, ( #285 ) ) ;
#273 = COORDINATED_UNIVERSAL_TIME_OFFSET ( 1, 0, .AHEAD. ) ;
#274 = DATE_TIME_ROLE ( 'creation_date' ) ;
#275 = ORIENTED_EDGE ( 'NONE', *, *, #14, .F. ) ;
#276 = AXIS2_PLACEMENT_3D ( 'NONE', #142, #144, #27 ) ;
#277 = FACE_OUTER_BOUND ( 'NONE', #279, .T. ) ;
#278 = FACE_OUTER_BOUND ( 'NONE', #234, .T. ) ;
#279 = EDGE_LOOP ( 'NONE', ( #207, #89, #1, #195 ) ) ;
#280 = DIRECTION ( 'NONE',  ( 1.000000000000000000, 0.000000000000000000, 0.000000000000000000 ) ) ;
#281 = APPROVAL_DATE_TIME ( #179, #248 ) ;
#282 = DIRECTION ( 'NONE',  ( 1.000000000000000000, 0.000000000000000000, 0.000000000000000000 ) ) ;
#283 = LINE ( 'NONE', #173, #58 ) ;
#284 = PERSON_AND_ORGANIZATION ( #246, #121 ) ;
#285 = PRODUCT_DEFINITION_FORMATION_WITH_SPECIFIED_SOURCE ( 'LIBOVOLNÝ', '', #223, .NOT_KNOWN. ) ;
#286 = DIRECTION ( 'NONE',  ( -0.000000000000000000, -0.000000000000000000, -1.000000000000000000 ) ) ;
#287 = APPROVAL_ROLE ( '' ) ;
#288 = ORIENTED_EDGE ( 'NONE', *, *, #73, .T. ) ;
#289 = CIRCLE ( 'NONE', #3, 0.1999999999999996503 ) ;
#290 = AXIS2_PLACEMENT_3D ( 'NONE', #225, #118, #28 ) ;
#291 = CC_DESIGN_APPROVAL ( #128, ( #259 ) ) ;
#292 = EDGE_CURVE ( 'NONE', #242, #81, #266, .T. ) ;
#293 = AXIS2_PLACEMENT_3D ( 'NONE', #255, #239, #91 ) ;
#294 = EDGE_LOOP ( 'NONE', ( #65, #288, #114, #216 ) ) ;
#295 = ORIENTED_EDGE ( 'NONE', *, *, #196, .T. ) ;
#296 = ORIENTED_EDGE ( 'NONE', *, *, #54, .F. ) ;
#297 = AXIS2_PLACEMENT_3D ( 'NONE', #113, #32, #208 ) ;
#298 = DIRECTION ( 'NONE',  ( -0.000000000000000000, -0.000000000000000000, -1.000000000000000000 ) ) ;
#299 = EDGE_CURVE ( 'NONE', #137, #242, #96, .T. ) ;
#300 = PERSON_AND_ORGANIZATION_ROLE ( 'classification_officer' ) ;
#301 = DIRECTION ( 'NONE',  ( 0.000000000000000000, 0.000000000000000000, 1.000000000000000000 ) ) ;
#302 = LINE ( 'NONE', #116, #124 ) ;
#303 = CARTESIAN_POINT ( 'NONE',  ( 4.000000000000000000, 4.898587196589412829E-16, 5.200000000000009948 ) ) ;
#304 = DIRECTION ( 'NONE',  ( 0.000000000000000000, 0.000000000000000000, 1.000000000000000000 ) ) ;
#305 = FACE_OUTER_BOUND ( 'NONE', #74, .T. ) ;
#306 = CYLINDRICAL_SURFACE ( 'NONE', #56, 4.000000000000000000 ) ;
#307 =( NAMED_UNIT ( * ) PLANE_ANGLE_UNIT ( ) SI_UNIT ( $, .RADIAN. ) );
ENDSEC;
END-ISO-10303-21;
