ISO-10303-21;
HEADER;
FILE_DESCRIPTION (( 'STEP AP203' ),
    '1' );
FILE_NAME ('7873.STEP',
    '2022-07-07T12:49:25',
    ( '' ),
    ( '' ),
    'SwSTEP 2.0',
    'SolidWorks 2019',
    '' );
FILE_SCHEMA (( 'CONFIG_CONTROL_DESIGN' ));
ENDSEC;

DATA;
#1 = CARTESIAN_POINT ( 'NONE',  ( -2.300000000000000266, 2.816687638038912549E-16, 2.999999999999990674 ) ) ;
#2 = VECTOR ( 'NONE', #256, 1000.000000000000000 ) ;
#3 = DIRECTION ( 'NONE',  ( 1.224646799147353207E-16, 1.000000000000000000, -0.000000000000000000 ) ) ;
#4 = EDGE_CURVE ( 'NONE', #23, #49, #176, .T. ) ;
#5 = CARTESIAN_POINT ( 'NONE',  ( -2.100000000000000089, 0.000000000000000000, 403.0000000000000000 ) ) ;
#6 = PERSON_AND_ORGANIZATION_ROLE ( 'creator' ) ;
#7 = DIRECTION ( 'NONE',  ( 1.000000000000000000, 0.000000000000000000, 0.000000000000000000 ) ) ;
#8 = AXIS2_PLACEMENT_3D ( 'NONE', #210, #274, #157 ) ;
#9 = AXIS2_PLACEMENT_3D ( 'NONE', #132, #257, #114 ) ;
#10 = DATE_TIME_ROLE ( 'creation_date' ) ;
#11 = FACE_OUTER_BOUND ( 'NONE', #162, .T. ) ;
#12 = EDGE_CURVE ( 'NONE', #141, #49, #41, .T. ) ;
#13 = DATE_AND_TIME ( #136, #14 ) ;
#14 = LOCAL_TIME ( 14, 49, 25.00000000000000000, #101 ) ;
#15 = DIRECTION ( 'NONE',  ( -1.000000000000000000, 0.000000000000000000, 0.000000000000000000 ) ) ;
#16 = DATE_AND_TIME ( #292, #268 ) ;
#17 = ORIENTED_EDGE ( 'NONE', *, *, #196, .T. ) ;
#18 = CYLINDRICAL_SURFACE ( 'NONE', #51, 2.100000000000000089 ) ;
#19 = CIRCLE ( 'NONE', #191, 0.2000000000000000944 ) ;
#20 = ADVANCED_FACE ( 'NONE', ( #11 ), #82, .T. ) ;
#21 = ORIENTED_EDGE ( 'NONE', *, *, #4, .T. ) ;
#22 = DIRECTION ( 'NONE',  ( 0.000000000000000000, 0.000000000000000000, 1.000000000000000000 ) ) ;
#23 = VERTEX_POINT ( 'NONE', #5 ) ;
#24 = LOCAL_TIME ( 14, 49, 25.00000000000000000, #207 ) ;
#25 = LOCAL_TIME ( 14, 49, 25.00000000000000000, #251 ) ;
#26 = CYLINDRICAL_SURFACE ( 'NONE', #285, 4.000000000000000000 ) ;
#27 = ORIENTED_EDGE ( 'NONE', *, *, #73, .T. ) ;
#28 = APPLICATION_CONTEXT ( 'configuration controlled 3d designs of mechanical parts and assemblies' ) ;
#29 = CARTESIAN_POINT ( 'NONE',  ( 0.000000000000000000, 0.000000000000000000, 3.000000000000000000 ) ) ;
#30 = CIRCLE ( 'NONE', #198, 4.000000000000000000 ) ;
#31 = DIRECTION ( 'NONE',  ( -0.000000000000000000, -0.000000000000000000, -1.000000000000000000 ) ) ;
#32 = ADVANCED_FACE ( 'NONE', ( #202 ), #53, .F. ) ;
#33 = CIRCLE ( 'NONE', #282, 2.100000000000000089 ) ;
#34 = FACE_OUTER_BOUND ( 'NONE', #97, .T. ) ;
#35 = DIRECTION ( 'NONE',  ( -0.000000000000000000, -0.000000000000000000, -1.000000000000000000 ) ) ;
#36 = AXIS2_PLACEMENT_3D ( 'NONE', #288, #155, #84 ) ;
#37 = ORIENTED_EDGE ( 'NONE', *, *, #206, .F. ) ;
#38 = CARTESIAN_POINT ( 'NONE',  ( -2.100000000000000089, 0.000000000000000000, 3.199999999999980638 ) ) ;
#39 = DIRECTION ( 'NONE',  ( 0.000000000000000000, 0.000000000000000000, 1.000000000000000000 ) ) ;
#40 = CC_DESIGN_PERSON_AND_ORGANIZATION_ASSIGNMENT ( #128, #89, ( #123 ) ) ;
#41 = CIRCLE ( 'NONE', #143, 2.100000000000000089 ) ;
#42 = DIRECTION ( 'NONE',  ( 0.000000000000000000, 0.000000000000000000, 1.000000000000000000 ) ) ;
#43 = DIRECTION ( 'NONE',  ( 0.000000000000000000, 0.000000000000000000, 1.000000000000000000 ) ) ;
#44 = COORDINATED_UNIVERSAL_TIME_OFFSET ( 1, 0, .AHEAD. ) ;
#45 = CARTESIAN_POINT ( 'NONE',  ( 0.000000000000000000, 0.000000000000000000, 403.0000000000000000 ) ) ;
#46 = DIRECTION ( 'NONE',  ( 1.000000000000000000, 0.000000000000000000, 0.000000000000000000 ) ) ;
#47 = PLANE ( 'NONE',  #72 ) ;
#48 = DIRECTION ( 'NONE',  ( -0.000000000000000000, -0.000000000000000000, -1.000000000000000000 ) ) ;
#49 = VERTEX_POINT ( 'NONE', #38 ) ;
#50 = DIRECTION ( 'NONE',  ( 0.000000000000000000, 0.000000000000000000, 1.000000000000000000 ) ) ;
#51 = AXIS2_PLACEMENT_3D ( 'NONE', #135, #278, #255 ) ;
#52 = CC_DESIGN_DATE_AND_TIME_ASSIGNMENT ( #13, #106, ( #147 ) ) ;
#53 = TOROIDAL_SURFACE ( 'NONE', #195, 2.300000000000000266, 0.2000000000000000111 ) ;
#54 = APPLICATION_CONTEXT ( 'configuration controlled 3d designs of mechanical parts and assemblies' ) ;
#55 = ORIENTED_EDGE ( 'NONE', *, *, #304, .T. ) ;
#56 = VERTEX_POINT ( 'NONE', #178 ) ;
#57 = EDGE_CURVE ( 'NONE', #49, #99, #231, .T. ) ;
#58 = EDGE_LOOP ( 'NONE', ( #273, #220 ) ) ;
#59 = ORIENTED_EDGE ( 'NONE', *, *, #12, .T. ) ;
#60 = EDGE_CURVE ( 'NONE', #199, #99, #170, .T. ) ;
#61 = ORIENTED_EDGE ( 'NONE', *, *, #12, .F. ) ;
#62 = DATE_AND_TIME ( #277, #25 ) ;
#63 = DIRECTION ( 'NONE',  ( 0.000000000000000000, 0.000000000000000000, -1.000000000000000000 ) ) ;
#64 = CLOSED_SHELL ( 'NONE', ( #100, #20, #139, #238, #221, #230, #109, #116, #32 ) ) ;
#65 = SHAPE_DEFINITION_REPRESENTATION ( #171, #271 ) ;
#66 = DIRECTION ( 'NONE',  ( 0.000000000000000000, 0.000000000000000000, 1.000000000000000000 ) ) ;
#67 =( GEOMETRIC_REPRESENTATION_CONTEXT ( 3 ) GLOBAL_UNCERTAINTY_ASSIGNED_CONTEXT ( ( #215 ) ) GLOBAL_UNIT_ASSIGNED_CONTEXT ( ( #168, #192, #144 ) ) REPRESENTATION_CONTEXT ( 'NONE', 'WORKASPACE' ) );
#68 = FACE_OUTER_BOUND ( 'NONE', #245, .T. ) ;
#69 = APPROVAL_ROLE ( '' ) ;
#70 = CARTESIAN_POINT ( 'NONE',  ( 0.000000000000000000, 0.000000000000000000, 3.199999999999980638 ) ) ;
#71 = CARTESIAN_POINT ( 'NONE',  ( 0.000000000000000000, 0.000000000000000000, 3.000000000000000000 ) ) ;
#72 = AXIS2_PLACEMENT_3D ( 'NONE', #140, #42, #119 ) ;
#73 = EDGE_CURVE ( 'NONE', #93, #208, #213, .T. ) ;
#74 = APPROVAL_STATUS ( 'not_yet_approved' ) ;
#75 = AXIS2_PLACEMENT_3D ( 'NONE', #269, #39, #232 ) ;
#76 = AXIS2_PLACEMENT_3D ( 'NONE', #189, #115, #303 ) ;
#77 = ORIENTED_EDGE ( 'NONE', *, *, #57, .T. ) ;
#78 = CC_DESIGN_PERSON_AND_ORGANIZATION_ASSIGNMENT ( #254, #177, ( #243 ) ) ;
#79 = CARTESIAN_POINT ( 'NONE',  ( -4.000000000000000000, 0.000000000000000000, 3.000000000000000000 ) ) ;
#80 = PRODUCT ( '7873', '7873', '', ( #260 ) ) ;
#81 = LOCAL_TIME ( 14, 49, 25.00000000000000000, #181 ) ;
#82 = CYLINDRICAL_SURFACE ( 'NONE', #204, 2.100000000000000089 ) ;
#83 = ORIENTED_EDGE ( 'NONE', *, *, #206, .T. ) ;
#84 = DIRECTION ( 'NONE',  ( 1.000000000000000000, 0.000000000000000000, 0.000000000000000000 ) ) ;
#85 = CARTESIAN_POINT ( 'NONE',  ( 0.000000000000000000, 0.000000000000000000, 3.000000000000000000 ) ) ;
#86 = APPROVAL_DATE_TIME ( #16, #200 ) ;
#87 = CARTESIAN_POINT ( 'NONE',  ( 2.300000000000000266, 0.000000000000000000, 3.199999999999980638 ) ) ;
#88 = AXIS2_PLACEMENT_3D ( 'NONE', #160, #108, #15 ) ;
#89 = PERSON_AND_ORGANIZATION_ROLE ( 'creator' ) ;
#90 = DIRECTION ( 'NONE',  ( 1.000000000000000000, 0.000000000000000000, 0.000000000000000000 ) ) ;
#91 = DIRECTION ( 'NONE',  ( 0.000000000000000000, 0.000000000000000000, 1.000000000000000000 ) ) ;
#92 = DIRECTION ( 'NONE',  ( 1.000000000000000000, 0.000000000000000000, 0.000000000000000000 ) ) ;
#93 = VERTEX_POINT ( 'NONE', #286 ) ;
#94 = PERSON ( 'NEURÈENÝ', 'NEURÈENÝ', 'NEURÈENÝ', ('NEURÈENÝ'), ('NEURÈENÝ'), ('NEURÈENÝ') ) ;
#95 = CARTESIAN_POINT ( 'NONE',  ( 2.100000000000000089, 2.571758278209441957E-16, 403.0000000000000000 ) ) ;
#96 = EDGE_CURVE ( 'NONE', #293, #208, #105, .T. ) ;
#97 = EDGE_LOOP ( 'NONE', ( #244, #212, #21, #17 ) ) ;
#98 = CARTESIAN_POINT ( 'NONE',  ( 0.000000000000000000, 0.000000000000000000, 3.199999999999980638 ) ) ;
#99 = VERTEX_POINT ( 'NONE', #1 ) ;
#100 = ADVANCED_FACE ( 'NONE', ( #146 ), #130, .F. ) ;
#101 = COORDINATED_UNIVERSAL_TIME_OFFSET ( 1, 0, .AHEAD. ) ;
#102 = CARTESIAN_POINT ( 'NONE',  ( -2.300000000000000266, 2.816687638038912549E-16, 3.199999999999980638 ) ) ;
#103 = CIRCLE ( 'NONE', #8, 2.100000000000000089 ) ;
#104 = PERSON_AND_ORGANIZATION ( #94, #127 ) ;
#105 = LINE ( 'NONE', #79, #122 ) ;
#106 = DATE_TIME_ROLE ( 'classification_date' ) ;
#107 = CC_DESIGN_APPROVAL ( #279, ( #243 ) ) ;
#108 = DIRECTION ( 'NONE',  ( -0.000000000000000000, -0.000000000000000000, -1.000000000000000000 ) ) ;
#109 = ADVANCED_FACE ( 'NONE', ( #34 ), #18, .T. ) ;
#110 = ORIENTED_EDGE ( 'NONE', *, *, #307, .F. ) ;
#111 = FACE_OUTER_BOUND ( 'NONE', #118, .T. ) ;
#112 = AXIS2_PLACEMENT_3D ( 'NONE', #214, #91, #137 ) ;
#113 = ORIENTED_EDGE ( 'NONE', *, *, #4, .F. ) ;
#114 = DIRECTION ( 'NONE',  ( 1.000000000000000000, 0.000000000000000000, 0.000000000000000000 ) ) ;
#115 = DIRECTION ( 'NONE',  ( 0.000000000000000000, 0.000000000000000000, 1.000000000000000000 ) ) ;
#116 = ADVANCED_FACE ( 'NONE', ( #291 ), #298, .T. ) ;
#117 = DIRECTION ( 'NONE',  ( 0.000000000000000000, 0.000000000000000000, 1.000000000000000000 ) ) ;
#118 = EDGE_LOOP ( 'NONE', ( #241, #83, #27, #265 ) ) ;
#119 = DIRECTION ( 'NONE',  ( 1.000000000000000000, 0.000000000000000000, -0.000000000000000000 ) ) ;
#120 = AXIS2_PLACEMENT_3D ( 'NONE', #71, #48, #92 ) ;
#121 = CARTESIAN_POINT ( 'NONE',  ( -4.000000000000000000, 0.000000000000000000, 3.000000000000000000 ) ) ;
#122 = VECTOR ( 'NONE', #264, 1000.000000000000000 ) ;
#123 = PRODUCT_DEFINITION ( 'NEZNÁMÝ', '', #243, #185 ) ;
#124 = ORIENTED_EDGE ( 'NONE', *, *, #60, .F. ) ;
#125 = ORIENTED_EDGE ( 'NONE', *, *, #57, .F. ) ;
#126 = DIRECTION ( 'NONE',  ( 1.000000000000000000, 0.000000000000000000, 0.000000000000000000 ) ) ;
#127 = ORGANIZATION ( 'NEURÈENÝ', 'NEURÈENÝ', '' ) ;
#128 = PERSON_AND_ORGANIZATION ( #94, #127 ) ;
#129 = ORIENTED_EDGE ( 'NONE', *, *, #307, .T. ) ;
#130 = TOROIDAL_SURFACE ( 'NONE', #246, 2.300000000000000266, 0.2000000000000000111 ) ;
#131 = EDGE_LOOP ( 'NONE', ( #55, #239 ) ) ;
#132 = CARTESIAN_POINT ( 'NONE',  ( 0.000000000000000000, 0.000000000000000000, 3.000000000000000000 ) ) ;
#133 = EDGE_CURVE ( 'NONE', #141, #199, #19, .T. ) ;
#134 = PERSON_AND_ORGANIZATION_ROLE ( 'classification_officer' ) ;
#135 = CARTESIAN_POINT ( 'NONE',  ( 0.000000000000000000, 0.000000000000000000, 403.0000000000000000 ) ) ;
#136 = CALENDAR_DATE ( 2022, 7, 7 ) ;
#137 = DIRECTION ( 'NONE',  ( 1.000000000000000000, 0.000000000000000000, 0.000000000000000000 ) ) ;
#138 = CIRCLE ( 'NONE', #112, 4.000000000000000000 ) ;
#139 = ADVANCED_FACE ( 'NONE', ( #111 ), #237, .T. ) ;
#140 = CARTESIAN_POINT ( 'NONE',  ( 0.000000000000000000, 0.000000000000000000, 0.000000000000000000 ) ) ;
#141 = VERTEX_POINT ( 'NONE', #218 ) ;
#142 = PERSON_AND_ORGANIZATION ( #94, #127 ) ;
#143 = AXIS2_PLACEMENT_3D ( 'NONE', #205, #289, #126 ) ;
#144 =( NAMED_UNIT ( * ) SI_UNIT ( $, .STERADIAN. ) SOLID_ANGLE_UNIT ( ) );
#145 = PRODUCT_RELATED_PRODUCT_CATEGORY ( 'detail', '', ( #80 ) ) ;
#146 = FACE_OUTER_BOUND ( 'NONE', #172, .T. ) ;
#147 = SECURITY_CLASSIFICATION ( '', '', #233 ) ;
#148 = DIRECTION ( 'NONE',  ( -1.000000000000000000, 1.224646799147353207E-16, 0.000000000000000000 ) ) ;
#149 = MANIFOLD_SOLID_BREP ( 'Zaoblit1', #64 ) ;
#150 = VECTOR ( 'NONE', #250, 1000.000000000000000 ) ;
#151 = ORIENTED_EDGE ( 'NONE', *, *, #259, .T. ) ;
#152 = EDGE_CURVE ( 'NONE', #208, #93, #138, .T. ) ;
#153 = ORIENTED_EDGE ( 'NONE', *, *, #152, .T. ) ;
#154 = CC_DESIGN_APPROVAL ( #253, ( #123 ) ) ;
#155 = DIRECTION ( 'NONE',  ( -0.000000000000000000, -0.000000000000000000, -1.000000000000000000 ) ) ;
#156 = APPROVAL_ROLE ( '' ) ;
#157 = DIRECTION ( 'NONE',  ( 1.000000000000000000, 0.000000000000000000, 0.000000000000000000 ) ) ;
#158 = CC_DESIGN_PERSON_AND_ORGANIZATION_ASSIGNMENT ( #203, #134, ( #147 ) ) ;
#159 = ORIENTED_EDGE ( 'NONE', *, *, #194, .F. ) ;
#160 = CARTESIAN_POINT ( 'NONE',  ( 0.000000000000000000, 0.000000000000000000, 3.000000000000000000 ) ) ;
#161 = APPROVAL_DATE_TIME ( #275, #253 ) ;
#162 = EDGE_LOOP ( 'NONE', ( #159, #249, #59, #113 ) ) ;
#163 = PLANE ( 'NONE',  #305 ) ;
#164 = CARTESIAN_POINT ( 'NONE',  ( 2.300000000000000266, 0.000000000000000000, 2.999999999999990674 ) ) ;
#165 = AXIS2_PLACEMENT_3D ( 'NONE', #45, #43, #188 ) ;
#166 = AXIS2_PLACEMENT_3D ( 'NONE', #222, #50, #46 ) ;
#167 = DIRECTION ( 'NONE',  ( -1.000000000000000000, 0.000000000000000000, 0.000000000000000000 ) ) ;
#168 =( LENGTH_UNIT ( ) NAMED_UNIT ( * ) SI_UNIT ( .MILLI., .METRE. ) );
#169 = CC_DESIGN_PERSON_AND_ORGANIZATION_ASSIGNMENT ( #142, #280, ( #80 ) ) ;
#170 = CIRCLE ( 'NONE', #36, 2.300000000000000266 ) ;
#171 = PRODUCT_DEFINITION_SHAPE ( 'NONE', 'NONE',  #123 ) ;
#172 = EDGE_LOOP ( 'NONE', ( #187, #77, #124, #247 ) ) ;
#173 = DIRECTION ( 'NONE',  ( -1.000000000000000000, 0.000000000000000000, 0.000000000000000000 ) ) ;
#174 = CC_DESIGN_PERSON_AND_ORGANIZATION_ASSIGNMENT ( #211, #6, ( #243 ) ) ;
#175 = CIRCLE ( 'NONE', #9, 4.000000000000000000 ) ;
#176 = LINE ( 'NONE', #248, #183 ) ;
#177 = PERSON_AND_ORGANIZATION_ROLE ( 'design_supplier' ) ;
#178 = CARTESIAN_POINT ( 'NONE',  ( 2.100000000000000089, 2.571758278209441957E-16, 403.0000000000000000 ) ) ;
#179 = DATE_AND_TIME ( #290, #24 ) ;
#180 = CARTESIAN_POINT ( 'NONE',  ( 4.000000000000000000, 4.898587196589412829E-16, 3.000000000000000000 ) ) ;
#181 = COORDINATED_UNIVERSAL_TIME_OFFSET ( 1, 0, .AHEAD. ) ;
#182 = ORIENTED_EDGE ( 'NONE', *, *, #226, .F. ) ;
#183 = VECTOR ( 'NONE', #35, 1000.000000000000000 ) ;
#184 = CARTESIAN_POINT ( 'NONE',  ( 0.000000000000000000, 0.000000000000000000, 3.199999999999980638 ) ) ;
#185 = DESIGN_CONTEXT ( 'detailed design', #54, 'design' ) ;
#186 = DIRECTION ( 'NONE',  ( 1.000000000000000000, 0.000000000000000000, 0.000000000000000000 ) ) ;
#187 = ORIENTED_EDGE ( 'NONE', *, *, #196, .F. ) ;
#188 = DIRECTION ( 'NONE',  ( 1.000000000000000000, 0.000000000000000000, -0.000000000000000000 ) ) ;
#189 = CARTESIAN_POINT ( 'NONE',  ( 0.000000000000000000, 0.000000000000000000, 0.000000000000000000 ) ) ;
#190 = ORIENTED_EDGE ( 'NONE', *, *, #96, .T. ) ;
#191 = AXIS2_PLACEMENT_3D ( 'NONE', #87, #296, #63 ) ;
#192 =( NAMED_UNIT ( * ) PLANE_ANGLE_UNIT ( ) SI_UNIT ( $, .RADIAN. ) );
#193 = CC_DESIGN_APPROVAL ( #200, ( #147 ) ) ;
#194 = EDGE_CURVE ( 'NONE', #56, #23, #103, .T. ) ;
#195 = AXIS2_PLACEMENT_3D ( 'NONE', #98, #287, #7 ) ;
#196 = EDGE_CURVE ( 'NONE', #49, #141, #33, .T. ) ;
#197 = APPROVAL_PERSON_ORGANIZATION ( #272, #200, #156 ) ;
#198 = AXIS2_PLACEMENT_3D ( 'NONE', #302, #117, #261 ) ;
#199 = VERTEX_POINT ( 'NONE', #164 ) ;
#200 = APPROVAL ( #295, 'NEURÈENÝ' ) ;
#201 = EDGE_LOOP ( 'NONE', ( #125, #61, #300, #110 ) ) ;
#202 = FACE_OUTER_BOUND ( 'NONE', #201, .T. ) ;
#203 = PERSON_AND_ORGANIZATION ( #94, #127 ) ;
#204 = AXIS2_PLACEMENT_3D ( 'NONE', #227, #229, #173 ) ;
#205 = CARTESIAN_POINT ( 'NONE',  ( 0.000000000000000000, 0.000000000000000000, 3.199999999999980638 ) ) ;
#206 = EDGE_CURVE ( 'NONE', #217, #93, #240, .T. ) ;
#207 = COORDINATED_UNIVERSAL_TIME_OFFSET ( 1, 0, .AHEAD. ) ;
#208 = VERTEX_POINT ( 'NONE', #242 ) ;
#209 = APPROVAL_STATUS ( 'not_yet_approved' ) ;
#210 = CARTESIAN_POINT ( 'NONE',  ( 0.000000000000000000, 0.000000000000000000, 403.0000000000000000 ) ) ;
#211 = PERSON_AND_ORGANIZATION ( #94, #127 ) ;
#212 = ORIENTED_EDGE ( 'NONE', *, *, #304, .F. ) ;
#213 = CIRCLE ( 'NONE', #75, 4.000000000000000000 ) ;
#214 = CARTESIAN_POINT ( 'NONE',  ( 0.000000000000000000, 0.000000000000000000, 0.000000000000000000 ) ) ;
#215 = UNCERTAINTY_MEASURE_WITH_UNIT (LENGTH_MEASURE( 1.000000000000000082E-05 ), #168, 'distance_accuracy_value', 'NONE');
#216 = APPROVAL_ROLE ( '' ) ;
#217 = VERTEX_POINT ( 'NONE', #180 ) ;
#218 = CARTESIAN_POINT ( 'NONE',  ( 2.100000000000000089, 2.571758278209441957E-16, 3.199999999999980638 ) ) ;
#219 = PERSON_AND_ORGANIZATION ( #94, #127 ) ;
#220 = ORIENTED_EDGE ( 'NONE', *, *, #73, .F. ) ;
#221 = ADVANCED_FACE ( 'NONE', ( #252, #68 ), #163, .T. ) ;
#222 = CARTESIAN_POINT ( 'NONE',  ( 0.000000000000000000, 0.000000000000000000, 403.0000000000000000 ) ) ;
#223 = APPLICATION_PROTOCOL_DEFINITION ( 'international standard', 'config_control_design', 1994, #28 ) ;
#224 = APPROVAL_PERSON_ORGANIZATION ( #104, #279, #216 ) ;
#225 = ORIENTED_EDGE ( 'NONE', *, *, #226, .T. ) ;
#226 = EDGE_CURVE ( 'NONE', #293, #217, #175, .T. ) ;
#227 = CARTESIAN_POINT ( 'NONE',  ( 0.000000000000000000, 0.000000000000000000, 403.0000000000000000 ) ) ;
#228 = APPROVAL_DATE_TIME ( #179, #279 ) ;
#229 = DIRECTION ( 'NONE',  ( -0.000000000000000000, -0.000000000000000000, -1.000000000000000000 ) ) ;
#230 = ADVANCED_FACE ( 'NONE', ( #294 ), #47, .F. ) ;
#231 = CIRCLE ( 'NONE', #262, 0.2000000000000000944 ) ;
#232 = DIRECTION ( 'NONE',  ( 1.000000000000000000, 0.000000000000000000, 0.000000000000000000 ) ) ;
#233 = SECURITY_CLASSIFICATION_LEVEL ( 'unclassified' ) ;
#234 = DIRECTION ( 'NONE',  ( 0.000000000000000000, 0.000000000000000000, 1.000000000000000000 ) ) ;
#235 = CC_DESIGN_SECURITY_CLASSIFICATION ( #147, ( #243 ) ) ;
#236 = CALENDAR_DATE ( 2022, 7, 7 ) ;
#237 = CYLINDRICAL_SURFACE ( 'NONE', #88, 4.000000000000000000 ) ;
#238 = ADVANCED_FACE ( 'NONE', ( #299 ), #26, .T. ) ;
#239 = ORIENTED_EDGE ( 'NONE', *, *, #194, .T. ) ;
#240 = LINE ( 'NONE', #276, #150 ) ;
#241 = ORIENTED_EDGE ( 'NONE', *, *, #259, .F. ) ;
#242 = CARTESIAN_POINT ( 'NONE',  ( -4.000000000000000000, 0.000000000000000000, 0.000000000000000000 ) ) ;
#243 = PRODUCT_DEFINITION_FORMATION_WITH_SPECIFIED_SOURCE ( 'LIBOVOLNÝ', '', #80, .NOT_KNOWN. ) ;
#244 = ORIENTED_EDGE ( 'NONE', *, *, #284, .F. ) ;
#245 = EDGE_LOOP ( 'NONE', ( #225, #151 ) ) ;
#246 = AXIS2_PLACEMENT_3D ( 'NONE', #184, #234, #90 ) ;
#247 = ORIENTED_EDGE ( 'NONE', *, *, #133, .F. ) ;
#248 = CARTESIAN_POINT ( 'NONE',  ( -2.100000000000000089, 0.000000000000000000, 403.0000000000000000 ) ) ;
#249 = ORIENTED_EDGE ( 'NONE', *, *, #284, .T. ) ;
#250 = DIRECTION ( 'NONE',  ( -0.000000000000000000, -0.000000000000000000, -1.000000000000000000 ) ) ;
#251 = COORDINATED_UNIVERSAL_TIME_OFFSET ( 1, 0, .AHEAD. ) ;
#252 = FACE_BOUND ( 'NONE', #297, .T. ) ;
#253 = APPROVAL ( #74, 'NEURÈENÝ' ) ;
#254 = PERSON_AND_ORGANIZATION ( #94, #127 ) ;
#255 = DIRECTION ( 'NONE',  ( -1.000000000000000000, 0.000000000000000000, 0.000000000000000000 ) ) ;
#256 = DIRECTION ( 'NONE',  ( -0.000000000000000000, -0.000000000000000000, -1.000000000000000000 ) ) ;
#257 = DIRECTION ( 'NONE',  ( 0.000000000000000000, 0.000000000000000000, 1.000000000000000000 ) ) ;
#258 = LINE ( 'NONE', #95, #2 ) ;
#259 = EDGE_CURVE ( 'NONE', #217, #293, #30, .T. ) ;
#260 = MECHANICAL_CONTEXT ( 'NONE', #28, 'mechanical' ) ;
#261 = DIRECTION ( 'NONE',  ( 1.000000000000000000, 0.000000000000000000, 0.000000000000000000 ) ) ;
#262 = AXIS2_PLACEMENT_3D ( 'NONE', #102, #3, #148 ) ;
#263 = CC_DESIGN_DATE_AND_TIME_ASSIGNMENT ( #62, #10, ( #123 ) ) ;
#264 = DIRECTION ( 'NONE',  ( -0.000000000000000000, -0.000000000000000000, -1.000000000000000000 ) ) ;
#265 = ORIENTED_EDGE ( 'NONE', *, *, #96, .F. ) ;
#266 = EDGE_LOOP ( 'NONE', ( #37, #182, #190, #153 ) ) ;
#267 = ORIENTED_EDGE ( 'NONE', *, *, #60, .T. ) ;
#268 = LOCAL_TIME ( 14, 49, 25.00000000000000000, #44 ) ;
#269 = CARTESIAN_POINT ( 'NONE',  ( 0.000000000000000000, 0.000000000000000000, 0.000000000000000000 ) ) ;
#270 = DIRECTION ( 'NONE',  ( 1.000000000000000000, 0.000000000000000000, -0.000000000000000000 ) ) ;
#271 = ADVANCED_BREP_SHAPE_REPRESENTATION ( '7873', ( #149, #76 ), #67 ) ;
#272 = PERSON_AND_ORGANIZATION ( #94, #127 ) ;
#273 = ORIENTED_EDGE ( 'NONE', *, *, #152, .F. ) ;
#274 = DIRECTION ( 'NONE',  ( 0.000000000000000000, 0.000000000000000000, 1.000000000000000000 ) ) ;
#275 = DATE_AND_TIME ( #236, #81 ) ;
#276 = CARTESIAN_POINT ( 'NONE',  ( 4.000000000000000000, 4.898587196589412829E-16, 3.000000000000000000 ) ) ;
#277 = CALENDAR_DATE ( 2022, 7, 7 ) ;
#278 = DIRECTION ( 'NONE',  ( -0.000000000000000000, -0.000000000000000000, -1.000000000000000000 ) ) ;
#279 = APPROVAL ( #209, 'NEURÈENÝ' ) ;
#280 = PERSON_AND_ORGANIZATION_ROLE ( 'design_owner' ) ;
#281 = APPLICATION_PROTOCOL_DEFINITION ( 'international standard', 'config_control_design', 1994, #54 ) ;
#282 = AXIS2_PLACEMENT_3D ( 'NONE', #70, #66, #186 ) ;
#283 = APPROVAL_PERSON_ORGANIZATION ( #219, #253, #69 ) ;
#284 = EDGE_CURVE ( 'NONE', #56, #141, #258, .T. ) ;
#285 = AXIS2_PLACEMENT_3D ( 'NONE', #29, #31, #167 ) ;
#286 = CARTESIAN_POINT ( 'NONE',  ( 4.000000000000000000, 4.898587196589412829E-16, 0.000000000000000000 ) ) ;
#287 = DIRECTION ( 'NONE',  ( 0.000000000000000000, 0.000000000000000000, 1.000000000000000000 ) ) ;
#288 = CARTESIAN_POINT ( 'NONE',  ( 0.000000000000000000, 0.000000000000000000, 3.000000000000000000 ) ) ;
#289 = DIRECTION ( 'NONE',  ( 0.000000000000000000, 0.000000000000000000, 1.000000000000000000 ) ) ;
#290 = CALENDAR_DATE ( 2022, 7, 7 ) ;
#291 = FACE_OUTER_BOUND ( 'NONE', #131, .T. ) ;
#292 = CALENDAR_DATE ( 2022, 7, 7 ) ;
#293 = VERTEX_POINT ( 'NONE', #121 ) ;
#294 = FACE_OUTER_BOUND ( 'NONE', #58, .T. ) ;
#295 = APPROVAL_STATUS ( 'not_yet_approved' ) ;
#296 = DIRECTION ( 'NONE',  ( 0.000000000000000000, -1.000000000000000000, 0.000000000000000000 ) ) ;
#297 = EDGE_LOOP ( 'NONE', ( #267, #129 ) ) ;
#298 = PLANE ( 'NONE',  #165 ) ;
#299 = FACE_OUTER_BOUND ( 'NONE', #266, .T. ) ;
#300 = ORIENTED_EDGE ( 'NONE', *, *, #133, .T. ) ;
#301 = CIRCLE ( 'NONE', #120, 2.300000000000000266 ) ;
#302 = CARTESIAN_POINT ( 'NONE',  ( 0.000000000000000000, 0.000000000000000000, 3.000000000000000000 ) ) ;
#303 = DIRECTION ( 'NONE',  ( 1.000000000000000000, 0.000000000000000000, 0.000000000000000000 ) ) ;
#304 = EDGE_CURVE ( 'NONE', #23, #56, #306, .T. ) ;
#305 = AXIS2_PLACEMENT_3D ( 'NONE', #85, #22, #270 ) ;
#306 = CIRCLE ( 'NONE', #166, 2.100000000000000089 ) ;
#307 = EDGE_CURVE ( 'NONE', #99, #199, #301, .T. ) ;
ENDSEC;
END-ISO-10303-21;
