ISO-10303-21;
HEADER;
FILE_DESCRIPTION (( 'STEP AP203' ),
    '1' );
FILE_NAME ('76f3.STEP',
    '2022-06-30T20:25:02',
    ( '' ),
    ( '' ),
    'SwSTEP 2.0',
    'SolidWorks 2019',
    '' );
FILE_SCHEMA (( 'CONFIG_CONTROL_DESIGN' ));
ENDSEC;

DATA;
#1 = CARTESIAN_POINT ( 'NONE',  ( -1.000000000000000000, 0.000000000000000000, 102.0000000000000142 ) ) ;
#2 = DIRECTION ( 'NONE',  ( -0.000000000000000000, -0.000000000000000000, -1.000000000000000000 ) ) ;
#3 = EDGE_LOOP ( 'NONE', ( #134, #50 ) ) ;
#4 = DIRECTION ( 'NONE',  ( -0.000000000000000000, -0.000000000000000000, -1.000000000000000000 ) ) ;
#5 = CARTESIAN_POINT ( 'NONE',  ( 0.000000000000000000, 0.000000000000000000, 2.000000000000000000 ) ) ;
#6 = CARTESIAN_POINT ( 'NONE',  ( 0.000000000000000000, 0.000000000000000000, 0.000000000000000000 ) ) ;
#7 = AXIS2_PLACEMENT_3D ( 'NONE', #42, #9, #27 ) ;
#8 = CARTESIAN_POINT ( 'NONE',  ( -1.000000000000000000, 0.000000000000000000, 2.000000000000000000 ) ) ;
#9 = DIRECTION ( 'NONE',  ( 0.000000000000000000, 0.000000000000000000, 1.000000000000000000 ) ) ;
#10 = APPROVAL_ROLE ( '' ) ;
#11 = ORIENTED_EDGE ( 'NONE', *, *, #26, .F. ) ;
#12 = PERSON_AND_ORGANIZATION ( #108, #249 ) ;
#13 = LOCAL_TIME ( 22, 25, 2.000000000000000000, #206 ) ;
#14 = DATE_TIME_ROLE ( 'creation_date' ) ;
#15 = FACE_OUTER_BOUND ( 'NONE', #107, .T. ) ;
#16 = CALENDAR_DATE ( 2022, 30, 6 ) ;
#17 = DIRECTION ( 'NONE',  ( 0.000000000000000000, 0.000000000000000000, 1.000000000000000000 ) ) ;
#18 = COORDINATED_UNIVERSAL_TIME_OFFSET ( 1, 0, .AHEAD. ) ;
#19 = CC_DESIGN_PERSON_AND_ORGANIZATION_ASSIGNMENT ( #231, #210, ( #187 ) ) ;
#20 = VERTEX_POINT ( 'NONE', #174 ) ;
#21 = VERTEX_POINT ( 'NONE', #113 ) ;
#22 = AXIS2_PLACEMENT_3D ( 'NONE', #92, #2, #54 ) ;
#23 = DIRECTION ( 'NONE',  ( 0.000000000000000000, 0.000000000000000000, 1.000000000000000000 ) ) ;
#24 = CARTESIAN_POINT ( 'NONE',  ( 1.000000000000000000, 1.224646799147353207E-16, 2.000000000000000000 ) ) ;
#25 = CC_DESIGN_SECURITY_CLASSIFICATION ( #226, ( #187 ) ) ;
#26 = EDGE_CURVE ( 'NONE', #21, #208, #240, .T. ) ;
#27 = DIRECTION ( 'NONE',  ( 1.000000000000000000, 0.000000000000000000, 0.000000000000000000 ) ) ;
#28 = PRODUCT_RELATED_PRODUCT_CATEGORY ( 'detail', '', ( #40 ) ) ;
#29 = CARTESIAN_POINT ( 'NONE',  ( -2.000000000000000000, 0.000000000000000000, 2.000000000000000000 ) ) ;
#30 = LOCAL_TIME ( 22, 25, 2.000000000000000000, #109 ) ;
#31 = DIRECTION ( 'NONE',  ( -0.000000000000000000, -0.000000000000000000, -1.000000000000000000 ) ) ;
#32 = PERSON_AND_ORGANIZATION ( #108, #249 ) ;
#33 = ADVANCED_FACE ( 'NONE', ( #15 ), #138, .T. ) ;
#34 = EDGE_CURVE ( 'NONE', #208, #166, #74, .T. ) ;
#35 = ORIENTED_EDGE ( 'NONE', *, *, #79, .F. ) ;
#36 = APPROVAL ( #72, 'NEURÈENÝ' ) ;
#37 = ORIENTED_EDGE ( 'NONE', *, *, #209, .T. ) ;
#38 = VERTEX_POINT ( 'NONE', #59 ) ;
#39 = FACE_OUTER_BOUND ( 'NONE', #49, .T. ) ;
#40 = PRODUCT ( '76f3', '76f3', '', ( #244 ) ) ;
#41 = FACE_OUTER_BOUND ( 'NONE', #3, .T. ) ;
#42 = CARTESIAN_POINT ( 'NONE',  ( 0.000000000000000000, 0.000000000000000000, 2.000000000000000000 ) ) ;
#43 = DIRECTION ( 'NONE',  ( 1.000000000000000000, 0.000000000000000000, 0.000000000000000000 ) ) ;
#44 = CARTESIAN_POINT ( 'NONE',  ( 2.000000000000000000, 2.449293598294706414E-16, 2.000000000000000000 ) ) ;
#45 = DIRECTION ( 'NONE',  ( 1.000000000000000000, 0.000000000000000000, 0.000000000000000000 ) ) ;
#46 = APPROVAL_DATE_TIME ( #90, #68 ) ;
#47 = CIRCLE ( 'NONE', #122, 2.000000000000000000 ) ;
#48 = PERSON_AND_ORGANIZATION ( #108, #249 ) ;
#49 = EDGE_LOOP ( 'NONE', ( #228, #247 ) ) ;
#50 = ORIENTED_EDGE ( 'NONE', *, *, #116, .T. ) ;
#51 = PERSON_AND_ORGANIZATION ( #108, #249 ) ;
#52 = DIRECTION ( 'NONE',  ( 1.000000000000000000, 0.000000000000000000, -0.000000000000000000 ) ) ;
#53 = DATE_AND_TIME ( #87, #30 ) ;
#54 = DIRECTION ( 'NONE',  ( -1.000000000000000000, 0.000000000000000000, 0.000000000000000000 ) ) ;
#55 = PLANE ( 'NONE',  #207 ) ;
#56 = LINE ( 'NONE', #1, #188 ) ;
#57 = CC_DESIGN_APPROVAL ( #68, ( #226 ) ) ;
#58 = CC_DESIGN_DATE_AND_TIME_ASSIGNMENT ( #164, #14, ( #100 ) ) ;
#59 = CARTESIAN_POINT ( 'NONE',  ( 2.000000000000000000, 2.449293598294706414E-16, 2.000000000000000000 ) ) ;
#60 = AXIS2_PLACEMENT_3D ( 'NONE', #233, #156, #216 ) ;
#61 = FACE_OUTER_BOUND ( 'NONE', #153, .T. ) ;
#62 = APPROVAL ( #193, 'NEURÈENÝ' ) ;
#63 = LOCAL_TIME ( 22, 25, 2.000000000000000000, #18 ) ;
#64 = DIRECTION ( 'NONE',  ( 1.000000000000000000, 0.000000000000000000, 0.000000000000000000 ) ) ;
#65 = CYLINDRICAL_SURFACE ( 'NONE', #111, 2.000000000000000000 ) ;
#66 =( GEOMETRIC_REPRESENTATION_CONTEXT ( 3 ) GLOBAL_UNCERTAINTY_ASSIGNED_CONTEXT ( ( #242 ) ) GLOBAL_UNIT_ASSIGNED_CONTEXT ( ( #182, #202, #159 ) ) REPRESENTATION_CONTEXT ( 'NONE', 'WORKASPACE' ) );
#67 = EDGE_CURVE ( 'NONE', #38, #175, #168, .T. ) ;
#68 = APPROVAL ( #150, 'NEURÈENÝ' ) ;
#69 = CALENDAR_DATE ( 2022, 30, 6 ) ;
#70 = ORIENTED_EDGE ( 'NONE', *, *, #67, .T. ) ;
#71 = DIRECTION ( 'NONE',  ( 0.000000000000000000, 0.000000000000000000, 1.000000000000000000 ) ) ;
#72 = APPROVAL_STATUS ( 'not_yet_approved' ) ;
#73 = DIRECTION ( 'NONE',  ( -1.000000000000000000, 0.000000000000000000, 0.000000000000000000 ) ) ;
#74 = LINE ( 'NONE', #77, #184 ) ;
#75 = ADVANCED_FACE ( 'NONE', ( #39 ), #132, .F. ) ;
#76 = AXIS2_PLACEMENT_3D ( 'NONE', #120, #140, #43 ) ;
#77 = CARTESIAN_POINT ( 'NONE',  ( 1.000000000000000000, 1.224646799147353207E-16, 102.0000000000000142 ) ) ;
#78 = AXIS2_PLACEMENT_3D ( 'NONE', #170, #71, #45 ) ;
#79 = EDGE_CURVE ( 'NONE', #21, #123, #56, .T. ) ;
#80 = DIRECTION ( 'NONE',  ( 0.000000000000000000, 0.000000000000000000, 1.000000000000000000 ) ) ;
#81 = CARTESIAN_POINT ( 'NONE',  ( 2.000000000000000000, 2.449293598294706414E-16, 0.000000000000000000 ) ) ;
#82 = LINE ( 'NONE', #205, #204 ) ;
#83 = DIRECTION ( 'NONE',  ( 1.000000000000000000, 0.000000000000000000, -0.000000000000000000 ) ) ;
#84 = COORDINATED_UNIVERSAL_TIME_OFFSET ( 1, 0, .AHEAD. ) ;
#85 = EDGE_LOOP ( 'NONE', ( #197, #230 ) ) ;
#86 = AXIS2_PLACEMENT_3D ( 'NONE', #5, #80, #158 ) ;
#87 = CALENDAR_DATE ( 2022, 30, 6 ) ;
#88 = CIRCLE ( 'NONE', #78, 1.000000000000000000 ) ;
#89 = DIRECTION ( 'NONE',  ( 1.000000000000000000, 0.000000000000000000, 0.000000000000000000 ) ) ;
#90 = DATE_AND_TIME ( #167, #13 ) ;
#91 = DIRECTION ( 'NONE',  ( 1.000000000000000000, 0.000000000000000000, -0.000000000000000000 ) ) ;
#92 = CARTESIAN_POINT ( 'NONE',  ( 0.000000000000000000, 0.000000000000000000, 102.0000000000000142 ) ) ;
#93 = ORIENTED_EDGE ( 'NONE', *, *, #229, .F. ) ;
#94 = FACE_OUTER_BOUND ( 'NONE', #165, .T. ) ;
#95 = CARTESIAN_POINT ( 'NONE',  ( 0.000000000000000000, 0.000000000000000000, 2.000000000000000000 ) ) ;
#96 = CC_DESIGN_APPROVAL ( #62, ( #187 ) ) ;
#97 = EDGE_CURVE ( 'NONE', #169, #20, #179, .T. ) ;
#98 = CARTESIAN_POINT ( 'NONE',  ( 1.000000000000000000, 1.224646799147353207E-16, 102.0000000000000142 ) ) ;
#99 = DIRECTION ( 'NONE',  ( -1.000000000000000000, 0.000000000000000000, 0.000000000000000000 ) ) ;
#100 = PRODUCT_DEFINITION ( 'NEZNÁMÝ', '', #187, #224 ) ;
#101 = MANIFOLD_SOLID_BREP ( 'Pøidat vysunutím3', #146 ) ;
#102 = PERSON_AND_ORGANIZATION_ROLE ( 'design_owner' ) ;
#103 = VECTOR ( 'NONE', #4, 1000.000000000000000 ) ;
#104 = ADVANCED_FACE ( 'NONE', ( #94 ), #172, .T. ) ;
#105 = ADVANCED_FACE ( 'NONE', ( #41 ), #55, .T. ) ;
#106 = PERSON_AND_ORGANIZATION ( #108, #249 ) ;
#107 = EDGE_LOOP ( 'NONE', ( #254, #11, #127, #37 ) ) ;
#108 = PERSON ( 'NEURÈENÝ', 'NEURÈENÝ', 'NEURÈENÝ', ('NEURÈENÝ'), ('NEURÈENÝ'), ('NEURÈENÝ') ) ;
#109 = COORDINATED_UNIVERSAL_TIME_OFFSET ( 1, 0, .AHEAD. ) ;
#110 = ORIENTED_EDGE ( 'NONE', *, *, #97, .T. ) ;
#111 = AXIS2_PLACEMENT_3D ( 'NONE', #222, #183, #99 ) ;
#112 = CC_DESIGN_DATE_AND_TIME_ASSIGNMENT ( #190, #253, ( #226 ) ) ;
#113 = CARTESIAN_POINT ( 'NONE',  ( -1.000000000000000000, 0.000000000000000000, 102.0000000000000142 ) ) ;
#114 = CARTESIAN_POINT ( 'NONE',  ( 0.000000000000000000, 0.000000000000000000, 0.000000000000000000 ) ) ;
#115 = FACE_OUTER_BOUND ( 'NONE', #232, .T. ) ;
#116 = EDGE_CURVE ( 'NONE', #208, #21, #88, .T. ) ;
#117 = AXIS2_PLACEMENT_3D ( 'NONE', #95, #178, #83 ) ;
#118 = FACE_OUTER_BOUND ( 'NONE', #126, .T. ) ;
#119 = CARTESIAN_POINT ( 'NONE',  ( 0.000000000000000000, 0.000000000000000000, 2.000000000000000000 ) ) ;
#120 = CARTESIAN_POINT ( 'NONE',  ( 0.000000000000000000, 0.000000000000000000, 0.000000000000000000 ) ) ;
#121 = EDGE_CURVE ( 'NONE', #20, #169, #47, .T. ) ;
#122 = AXIS2_PLACEMENT_3D ( 'NONE', #6, #139, #227 ) ;
#123 = VERTEX_POINT ( 'NONE', #8 ) ;
#124 = ORIENTED_EDGE ( 'NONE', *, *, #192, .T. ) ;
#125 = APPROVAL_PERSON_ORGANIZATION ( #211, #68, #131 ) ;
#126 = EDGE_LOOP ( 'NONE', ( #236, #237, #110, #93 ) ) ;
#127 = ORIENTED_EDGE ( 'NONE', *, *, #79, .T. ) ;
#128 = APPROVAL_DATE_TIME ( #144, #62 ) ;
#129 = APPROVAL_DATE_TIME ( #53, #36 ) ;
#130 = DIRECTION ( 'NONE',  ( -0.000000000000000000, -0.000000000000000000, -1.000000000000000000 ) ) ;
#131 = APPROVAL_ROLE ( '' ) ;
#132 = PLANE ( 'NONE',  #142 ) ;
#133 = CC_DESIGN_PERSON_AND_ORGANIZATION_ASSIGNMENT ( #106, #195, ( #100 ) ) ;
#134 = ORIENTED_EDGE ( 'NONE', *, *, #26, .T. ) ;
#135 = APPROVAL_PERSON_ORGANIZATION ( #51, #36, #154 ) ;
#136 = ORIENTED_EDGE ( 'NONE', *, *, #192, .F. ) ;
#137 = AXIS2_PLACEMENT_3D ( 'NONE', #114, #214, #89 ) ;
#138 = CYLINDRICAL_SURFACE ( 'NONE', #22, 1.000000000000000000 ) ;
#139 = DIRECTION ( 'NONE',  ( 0.000000000000000000, 0.000000000000000000, 1.000000000000000000 ) ) ;
#140 = DIRECTION ( 'NONE',  ( 0.000000000000000000, 0.000000000000000000, 1.000000000000000000 ) ) ;
#141 = DIRECTION ( 'NONE',  ( -0.000000000000000000, -0.000000000000000000, -1.000000000000000000 ) ) ;
#142 = AXIS2_PLACEMENT_3D ( 'NONE', #238, #23, #52 ) ;
#143 = FACE_BOUND ( 'NONE', #85, .T. ) ;
#144 = DATE_AND_TIME ( #16, #63 ) ;
#145 = ORIENTED_EDGE ( 'NONE', *, *, #121, .T. ) ;
#146 = CLOSED_SHELL ( 'NONE', ( #104, #176, #163, #219, #75, #33, #105 ) ) ;
#147 = CIRCLE ( 'NONE', #7, 1.000000000000000000 ) ;
#148 = PERSON_AND_ORGANIZATION ( #108, #249 ) ;
#149 = CC_DESIGN_PERSON_AND_ORGANIZATION_ASSIGNMENT ( #148, #102, ( #40 ) ) ;
#150 = APPROVAL_STATUS ( 'not_yet_approved' ) ;
#151 = ORIENTED_EDGE ( 'NONE', *, *, #229, .T. ) ;
#152 = PERSON_AND_ORGANIZATION_ROLE ( 'classification_officer' ) ;
#153 = EDGE_LOOP ( 'NONE', ( #124, #70 ) ) ;
#154 = APPROVAL_ROLE ( '' ) ;
#155 = ORIENTED_EDGE ( 'NONE', *, *, #116, .F. ) ;
#156 = DIRECTION ( 'NONE',  ( 0.000000000000000000, 0.000000000000000000, 1.000000000000000000 ) ) ;
#157 = ORIENTED_EDGE ( 'NONE', *, *, #199, .T. ) ;
#158 = DIRECTION ( 'NONE',  ( 1.000000000000000000, 0.000000000000000000, 0.000000000000000000 ) ) ;
#159 =( NAMED_UNIT ( * ) SI_UNIT ( $, .STERADIAN. ) SOLID_ANGLE_UNIT ( ) );
#160 = CC_DESIGN_PERSON_AND_ORGANIZATION_ASSIGNMENT ( #48, #171, ( #187 ) ) ;
#161 = PLANE ( 'NONE',  #117 ) ;
#162 = DIRECTION ( 'NONE',  ( -1.000000000000000000, 0.000000000000000000, 0.000000000000000000 ) ) ;
#163 = ADVANCED_FACE ( 'NONE', ( #115 ), #65, .T. ) ;
#164 = DATE_AND_TIME ( #255, #225 ) ;
#165 = EDGE_LOOP ( 'NONE', ( #155, #196, #157, #35 ) ) ;
#166 = VERTEX_POINT ( 'NONE', #24 ) ;
#167 = CALENDAR_DATE ( 2022, 30, 6 ) ;
#168 = CIRCLE ( 'NONE', #60, 2.000000000000000000 ) ;
#169 = VERTEX_POINT ( 'NONE', #81 ) ;
#170 = CARTESIAN_POINT ( 'NONE',  ( 0.000000000000000000, 0.000000000000000000, 102.0000000000000142 ) ) ;
#171 = PERSON_AND_ORGANIZATION_ROLE ( 'creator' ) ;
#172 = CYLINDRICAL_SURFACE ( 'NONE', #250, 1.000000000000000000 ) ;
#173 = AXIS2_PLACEMENT_3D ( 'NONE', #252, #198, #191 ) ;
#174 = CARTESIAN_POINT ( 'NONE',  ( -2.000000000000000000, 0.000000000000000000, 0.000000000000000000 ) ) ;
#175 = VERTEX_POINT ( 'NONE', #29 ) ;
#176 = ADVANCED_FACE ( 'NONE', ( #118 ), #203, .T. ) ;
#177 = AXIS2_PLACEMENT_3D ( 'NONE', #200, #223, #64 ) ;
#178 = DIRECTION ( 'NONE',  ( 0.000000000000000000, 0.000000000000000000, 1.000000000000000000 ) ) ;
#179 = CIRCLE ( 'NONE', #137, 2.000000000000000000 ) ;
#180 = CC_DESIGN_PERSON_AND_ORGANIZATION_ASSIGNMENT ( #32, #152, ( #226 ) ) ;
#181 = APPLICATION_PROTOCOL_DEFINITION ( 'international standard', 'config_control_design', 1994, #248 ) ;
#182 =( LENGTH_UNIT ( ) NAMED_UNIT ( * ) SI_UNIT ( .MILLI., .METRE. ) );
#183 = DIRECTION ( 'NONE',  ( -0.000000000000000000, -0.000000000000000000, -1.000000000000000000 ) ) ;
#184 = VECTOR ( 'NONE', #239, 1000.000000000000000 ) ;
#185 = COORDINATED_UNIVERSAL_TIME_OFFSET ( 1, 0, .AHEAD. ) ;
#186 = APPLICATION_PROTOCOL_DEFINITION ( 'international standard', 'config_control_design', 1994, #235 ) ;
#187 = PRODUCT_DEFINITION_FORMATION_WITH_SPECIFIED_SOURCE ( 'LIBOVOLNÝ', '', #40, .NOT_KNOWN. ) ;
#188 = VECTOR ( 'NONE', #130, 1000.000000000000000 ) ;
#189 = CC_DESIGN_APPROVAL ( #36, ( #100 ) ) ;
#190 = DATE_AND_TIME ( #69, #246 ) ;
#191 = DIRECTION ( 'NONE',  ( 1.000000000000000000, 0.000000000000000000, 0.000000000000000000 ) ) ;
#192 = EDGE_CURVE ( 'NONE', #175, #38, #220, .T. ) ;
#193 = APPROVAL_STATUS ( 'not_yet_approved' ) ;
#194 = DIRECTION ( 'NONE',  ( -0.000000000000000000, -0.000000000000000000, -1.000000000000000000 ) ) ;
#195 = PERSON_AND_ORGANIZATION_ROLE ( 'creator' ) ;
#196 = ORIENTED_EDGE ( 'NONE', *, *, #34, .T. ) ;
#197 = ORIENTED_EDGE ( 'NONE', *, *, #209, .F. ) ;
#198 = DIRECTION ( 'NONE',  ( 0.000000000000000000, 0.000000000000000000, 1.000000000000000000 ) ) ;
#199 = EDGE_CURVE ( 'NONE', #166, #123, #147, .T. ) ;
#200 = CARTESIAN_POINT ( 'NONE',  ( 0.000000000000000000, 0.000000000000000000, 2.000000000000000000 ) ) ;
#201 = AXIS2_PLACEMENT_3D ( 'NONE', #119, #31, #162 ) ;
#202 =( NAMED_UNIT ( * ) PLANE_ANGLE_UNIT ( ) SI_UNIT ( $, .RADIAN. ) );
#203 = CYLINDRICAL_SURFACE ( 'NONE', #201, 2.000000000000000000 ) ;
#204 = VECTOR ( 'NONE', #141, 1000.000000000000000 ) ;
#205 = CARTESIAN_POINT ( 'NONE',  ( -2.000000000000000000, 0.000000000000000000, 2.000000000000000000 ) ) ;
#206 = COORDINATED_UNIVERSAL_TIME_OFFSET ( 1, 0, .AHEAD. ) ;
#207 = AXIS2_PLACEMENT_3D ( 'NONE', #212, #17, #91 ) ;
#208 = VERTEX_POINT ( 'NONE', #98 ) ;
#209 = EDGE_CURVE ( 'NONE', #123, #166, #234, .T. ) ;
#210 = PERSON_AND_ORGANIZATION_ROLE ( 'design_supplier' ) ;
#211 = PERSON_AND_ORGANIZATION ( #108, #249 ) ;
#212 = CARTESIAN_POINT ( 'NONE',  ( 0.000000000000000000, 0.000000000000000000, 102.0000000000000142 ) ) ;
#213 = SHAPE_DEFINITION_REPRESENTATION ( #218, #221 ) ;
#214 = DIRECTION ( 'NONE',  ( 0.000000000000000000, 0.000000000000000000, 1.000000000000000000 ) ) ;
#215 = ORIENTED_EDGE ( 'NONE', *, *, #241, .F. ) ;
#216 = DIRECTION ( 'NONE',  ( 1.000000000000000000, 0.000000000000000000, 0.000000000000000000 ) ) ;
#217 = CARTESIAN_POINT ( 'NONE',  ( 0.000000000000000000, 0.000000000000000000, 102.0000000000000142 ) ) ;
#218 = PRODUCT_DEFINITION_SHAPE ( 'NONE', 'NONE',  #100 ) ;
#219 = ADVANCED_FACE ( 'NONE', ( #143, #61 ), #161, .T. ) ;
#220 = CIRCLE ( 'NONE', #86, 2.000000000000000000 ) ;
#221 = ADVANCED_BREP_SHAPE_REPRESENTATION ( '76f3', ( #101, #76 ), #66 ) ;
#222 = CARTESIAN_POINT ( 'NONE',  ( 0.000000000000000000, 0.000000000000000000, 2.000000000000000000 ) ) ;
#223 = DIRECTION ( 'NONE',  ( 0.000000000000000000, 0.000000000000000000, 1.000000000000000000 ) ) ;
#224 = DESIGN_CONTEXT ( 'detailed design', #235, 'design' ) ;
#225 = LOCAL_TIME ( 22, 25, 2.000000000000000000, #185 ) ;
#226 = SECURITY_CLASSIFICATION ( '', '', #251 ) ;
#227 = DIRECTION ( 'NONE',  ( 1.000000000000000000, 0.000000000000000000, 0.000000000000000000 ) ) ;
#228 = ORIENTED_EDGE ( 'NONE', *, *, #121, .F. ) ;
#229 = EDGE_CURVE ( 'NONE', #175, #20, #82, .T. ) ;
#230 = ORIENTED_EDGE ( 'NONE', *, *, #199, .F. ) ;
#231 = PERSON_AND_ORGANIZATION ( #108, #249 ) ;
#232 = EDGE_LOOP ( 'NONE', ( #215, #136, #151, #145 ) ) ;
#233 = CARTESIAN_POINT ( 'NONE',  ( 0.000000000000000000, 0.000000000000000000, 2.000000000000000000 ) ) ;
#234 = CIRCLE ( 'NONE', #177, 1.000000000000000000 ) ;
#235 = APPLICATION_CONTEXT ( 'configuration controlled 3d designs of mechanical parts and assemblies' ) ;
#236 = ORIENTED_EDGE ( 'NONE', *, *, #67, .F. ) ;
#237 = ORIENTED_EDGE ( 'NONE', *, *, #241, .T. ) ;
#238 = CARTESIAN_POINT ( 'NONE',  ( 0.000000000000000000, 0.000000000000000000, 0.000000000000000000 ) ) ;
#239 = DIRECTION ( 'NONE',  ( -0.000000000000000000, -0.000000000000000000, -1.000000000000000000 ) ) ;
#240 = CIRCLE ( 'NONE', #173, 1.000000000000000000 ) ;
#241 = EDGE_CURVE ( 'NONE', #38, #169, #245, .T. ) ;
#242 = UNCERTAINTY_MEASURE_WITH_UNIT (LENGTH_MEASURE( 1.000000000000000082E-05 ), #182, 'distance_accuracy_value', 'NONE');
#243 = APPROVAL_PERSON_ORGANIZATION ( #12, #62, #10 ) ;
#244 = MECHANICAL_CONTEXT ( 'NONE', #248, 'mechanical' ) ;
#245 = LINE ( 'NONE', #44, #103 ) ;
#246 = LOCAL_TIME ( 22, 25, 2.000000000000000000, #84 ) ;
#247 = ORIENTED_EDGE ( 'NONE', *, *, #97, .F. ) ;
#248 = APPLICATION_CONTEXT ( 'configuration controlled 3d designs of mechanical parts and assemblies' ) ;
#249 = ORGANIZATION ( 'NEURÈENÝ', 'NEURÈENÝ', '' ) ;
#250 = AXIS2_PLACEMENT_3D ( 'NONE', #217, #194, #73 ) ;
#251 = SECURITY_CLASSIFICATION_LEVEL ( 'unclassified' ) ;
#252 = CARTESIAN_POINT ( 'NONE',  ( 0.000000000000000000, 0.000000000000000000, 102.0000000000000142 ) ) ;
#253 = DATE_TIME_ROLE ( 'classification_date' ) ;
#254 = ORIENTED_EDGE ( 'NONE', *, *, #34, .F. ) ;
#255 = CALENDAR_DATE ( 2022, 30, 6 ) ;
ENDSEC;
END-ISO-10303-21;
