ISO-10303-21;
HEADER;
FILE_DESCRIPTION (( 'STEP AP203' ),
    '1' );
FILE_NAME ('f7a3.STEP',
    '2022-07-07T12:17:32',
    ( '' ),
    ( '' ),
    'SwSTEP 2.0',
    'SolidWorks 2019',
    '' );
FILE_SCHEMA (( 'CONFIG_CONTROL_DESIGN' ));
ENDSEC;

DATA;
#1 = TOROIDAL_SURFACE ( 'NONE', #24, 10.20000000000000107, 0.2000000000000000111 ) ;
#2 = CIRCLE ( 'NONE', #302, 10.20000000000000107 ) ;
#3 = ORIENTED_EDGE ( 'NONE', *, *, #176, .F. ) ;
#4 = ORIENTED_EDGE ( 'NONE', *, *, #14, .F. ) ;
#5 = DIRECTION ( 'NONE',  ( 0.000000000000000000, 0.000000000000000000, 1.000000000000000000 ) ) ;
#6 = UNCERTAINTY_MEASURE_WITH_UNIT (LENGTH_MEASURE( 1.000000000000000082E-05 ), #156, 'distance_accuracy_value', 'NONE');
#7 = CARTESIAN_POINT ( 'NONE',  ( 0.000000000000000000, 0.000000000000000000, 508.0000000000000000 ) ) ;
#8 = CIRCLE ( 'NONE', #300, 10.00000000000000000 ) ;
#9 = ADVANCED_FACE ( 'NONE', ( #212 ), #191, .F. ) ;
#10 = CARTESIAN_POINT ( 'NONE',  ( 0.000000000000000000, 0.000000000000000000, 0.000000000000000000 ) ) ;
#11 = APPROVAL_DATE_TIME ( #157, #287 ) ;
#12 = CARTESIAN_POINT ( 'NONE',  ( 13.00000000000000178, 1.592040838891559293E-15, 8.000000000000000000 ) ) ;
#13 = CALENDAR_DATE ( 2022, 7, 7 ) ;
#14 = EDGE_CURVE ( 'NONE', #303, #230, #222, .T. ) ;
#15 = PRODUCT_RELATED_PRODUCT_CATEGORY ( 'detail', '', ( #142 ) ) ;
#16 = DIRECTION ( 'NONE',  ( 0.000000000000000000, 0.000000000000000000, 1.000000000000000000 ) ) ;
#17 = AXIS2_PLACEMENT_3D ( 'NONE', #145, #25, #85 ) ;
#18 = CARTESIAN_POINT ( 'NONE',  ( 0.000000000000000000, 0.000000000000000000, 8.199999999999985079 ) ) ;
#19 = DATE_AND_TIME ( #109, #21 ) ;
#20 = PRODUCT_DEFINITION_FORMATION_WITH_SPECIFIED_SOURCE ( 'LIBOVOLNÝ', '', #142, .NOT_KNOWN. ) ;
#21 = LOCAL_TIME ( 14, 17, 32.00000000000000000, #225 ) ;
#22 = EDGE_LOOP ( 'NONE', ( #181, #159, #49, #226 ) ) ;
#23 = ADVANCED_FACE ( 'NONE', ( #27 ), #100, .T. ) ;
#24 = AXIS2_PLACEMENT_3D ( 'NONE', #51, #258, #141 ) ;
#25 = DIRECTION ( 'NONE',  ( -0.000000000000000000, -0.000000000000000000, -1.000000000000000000 ) ) ;
#26 = ORIENTED_EDGE ( 'NONE', *, *, #176, .T. ) ;
#27 = FACE_OUTER_BOUND ( 'NONE', #281, .T. ) ;
#28 = AXIS2_PLACEMENT_3D ( 'NONE', #131, #272, #31 ) ;
#29 = ORIENTED_EDGE ( 'NONE', *, *, #207, .T. ) ;
#30 = ORIENTED_EDGE ( 'NONE', *, *, #228, .T. ) ;
#31 = DIRECTION ( 'NONE',  ( 1.000000000000000000, 0.000000000000000000, 0.000000000000000000 ) ) ;
#32 = CC_DESIGN_DATE_AND_TIME_ASSIGNMENT ( #19, #154, ( #88 ) ) ;
#33 = DIRECTION ( 'NONE',  ( -0.000000000000000000, -0.000000000000000000, -1.000000000000000000 ) ) ;
#34 = SECURITY_CLASSIFICATION ( '', '', #178 ) ;
#35 = DATE_AND_TIME ( #297, #90 ) ;
#36 = APPROVAL_PERSON_ORGANIZATION ( #130, #287, #86 ) ;
#37 = CARTESIAN_POINT ( 'NONE',  ( -13.00000000000000178, 0.000000000000000000, 8.000000000000000000 ) ) ;
#38 = PERSON_AND_ORGANIZATION ( #254, #68 ) ;
#39 = CYLINDRICAL_SURFACE ( 'NONE', #229, 10.00000000000000000 ) ;
#40 = DIRECTION ( 'NONE',  ( 0.000000000000000000, -1.000000000000000000, 0.000000000000000000 ) ) ;
#41 = APPROVAL_DATE_TIME ( #35, #103 ) ;
#42 = CIRCLE ( 'NONE', #210, 10.00000000000000000 ) ;
#43 = CARTESIAN_POINT ( 'NONE',  ( -10.20000000000000107, 1.249139735130300365E-15, 7.999999999999992895 ) ) ;
#44 = APPROVAL_ROLE ( '' ) ;
#45 = ORIENTED_EDGE ( 'NONE', *, *, #261, .F. ) ;
#46 = AXIS2_PLACEMENT_3D ( 'NONE', #89, #204, #152 ) ;
#47 = APPLICATION_CONTEXT ( 'configuration controlled 3d designs of mechanical parts and assemblies' ) ;
#48 = AXIS2_PLACEMENT_3D ( 'NONE', #177, #16, #148 ) ;
#49 = ORIENTED_EDGE ( 'NONE', *, *, #173, .F. ) ;
#50 = ORIENTED_EDGE ( 'NONE', *, *, #228, .F. ) ;
#51 = CARTESIAN_POINT ( 'NONE',  ( 0.000000000000000000, 0.000000000000000000, 8.199999999999985079 ) ) ;
#52 = ORIENTED_EDGE ( 'NONE', *, *, #128, .F. ) ;
#53 = CIRCLE ( 'NONE', #224, 13.00000000000000178 ) ;
#54 = PLANE ( 'NONE',  #135 ) ;
#55 = CARTESIAN_POINT ( 'NONE',  ( -10.00000000000000000, 0.000000000000000000, 8.199999999999985079 ) ) ;
#56 = CARTESIAN_POINT ( 'NONE',  ( 13.00000000000000178, 1.592040838891559293E-15, 8.000000000000000000 ) ) ;
#57 = VECTOR ( 'NONE', #268, 1000.000000000000000 ) ;
#58 = PERSON_AND_ORGANIZATION_ROLE ( 'creator' ) ;
#59 = LINE ( 'NONE', #202, #57 ) ;
#60 = CARTESIAN_POINT ( 'NONE',  ( 0.000000000000000000, 0.000000000000000000, 8.199999999999985079 ) ) ;
#61 = LINE ( 'NONE', #200, #155 ) ;
#62 = COORDINATED_UNIVERSAL_TIME_OFFSET ( 1, 0, .AHEAD. ) ;
#63 = APPROVAL ( #242, 'NEURÈENÝ' ) ;
#64 = ORIENTED_EDGE ( 'NONE', *, *, #231, .F. ) ;
#65 = ORIENTED_EDGE ( 'NONE', *, *, #259, .F. ) ;
#66 = EDGE_CURVE ( 'NONE', #230, #304, #208, .T. ) ;
#67 = ADVANCED_FACE ( 'NONE', ( #288, #284 ), #165, .T. ) ;
#68 = ORGANIZATION ( 'NEURÈENÝ', 'NEURÈENÝ', '' ) ;
#69 = ORIENTED_EDGE ( 'NONE', *, *, #14, .T. ) ;
#70 = CARTESIAN_POINT ( 'NONE',  ( 0.000000000000000000, 0.000000000000000000, 0.000000000000000000 ) ) ;
#71 = CARTESIAN_POINT ( 'NONE',  ( -13.00000000000000178, 0.000000000000000000, 8.000000000000000000 ) ) ;
#72 = CC_DESIGN_APPROVAL ( #103, ( #88 ) ) ;
#73 = EDGE_CURVE ( 'NONE', #255, #158, #167, .T. ) ;
#74 = DIRECTION ( 'NONE',  ( 1.000000000000000000, 0.000000000000000000, -0.000000000000000000 ) ) ;
#75 = CARTESIAN_POINT ( 'NONE',  ( 0.000000000000000000, 0.000000000000000000, 8.199999999999985079 ) ) ;
#76 = AXIS2_PLACEMENT_3D ( 'NONE', #188, #306, #101 ) ;
#77 = ORIENTED_EDGE ( 'NONE', *, *, #285, .F. ) ;
#78 = DESIGN_CONTEXT ( 'detailed design', #257, 'design' ) ;
#79 = CARTESIAN_POINT ( 'NONE',  ( 0.000000000000000000, 0.000000000000000000, 508.0000000000000000 ) ) ;
#80 = DIRECTION ( 'NONE',  ( 1.000000000000000000, 0.000000000000000000, 0.000000000000000000 ) ) ;
#81 = PERSON_AND_ORGANIZATION_ROLE ( 'creator' ) ;
#82 = DIRECTION ( 'NONE',  ( 1.000000000000000000, 0.000000000000000000, 0.000000000000000000 ) ) ;
#83 = LOCAL_TIME ( 14, 17, 32.00000000000000000, #134 ) ;
#84 = APPROVAL_DATE_TIME ( #106, #63 ) ;
#85 = DIRECTION ( 'NONE',  ( -1.000000000000000000, 0.000000000000000000, 0.000000000000000000 ) ) ;
#86 = APPROVAL_ROLE ( '' ) ;
#87 = CARTESIAN_POINT ( 'NONE',  ( -10.00000000000000000, 0.000000000000000000, 508.0000000000000000 ) ) ;
#88 = PRODUCT_DEFINITION ( 'NEZNÁMÝ', '', #20, #78 ) ;
#89 = CARTESIAN_POINT ( 'NONE',  ( 0.000000000000000000, 0.000000000000000000, 0.000000000000000000 ) ) ;
#90 = LOCAL_TIME ( 14, 17, 32.00000000000000000, #240 ) ;
#91 = ORIENTED_EDGE ( 'NONE', *, *, #66, .F. ) ;
#92 = ADVANCED_BREP_SHAPE_REPRESENTATION ( 'f7a3', ( #137, #46 ), #269 ) ;
#93 = ORIENTED_EDGE ( 'NONE', *, *, #273, .T. ) ;
#94 = CC_DESIGN_DATE_AND_TIME_ASSIGNMENT ( #249, #175, ( #34 ) ) ;
#95 = DIRECTION ( 'NONE',  ( -1.000000000000000000, 1.224646799147353207E-16, 0.000000000000000000 ) ) ;
#96 = EDGE_LOOP ( 'NONE', ( #232, #114 ) ) ;
#97 = ORIENTED_EDGE ( 'NONE', *, *, #161, .T. ) ;
#98 = APPROVAL_PERSON_ORGANIZATION ( #147, #103, #111 ) ;
#99 = ADVANCED_FACE ( 'NONE', ( #193 ), #54, .T. ) ;
#100 = CYLINDRICAL_SURFACE ( 'NONE', #76, 13.00000000000000178 ) ;
#101 = DIRECTION ( 'NONE',  ( -1.000000000000000000, 0.000000000000000000, 0.000000000000000000 ) ) ;
#102 = DIRECTION ( 'NONE',  ( 1.000000000000000000, 0.000000000000000000, 0.000000000000000000 ) ) ;
#103 = APPROVAL ( #274, 'NEURÈENÝ' ) ;
#104 = FACE_OUTER_BOUND ( 'NONE', #162, .T. ) ;
#105 = ADVANCED_FACE ( 'NONE', ( #143 ), #1, .F. ) ;
#106 = DATE_AND_TIME ( #13, #83 ) ;
#107 = AXIS2_PLACEMENT_3D ( 'NONE', #70, #266, #74 ) ;
#108 = CARTESIAN_POINT ( 'NONE',  ( 0.000000000000000000, 0.000000000000000000, 8.000000000000000000 ) ) ;
#109 = CALENDAR_DATE ( 2022, 7, 7 ) ;
#110 = CARTESIAN_POINT ( 'NONE',  ( 0.000000000000000000, 0.000000000000000000, 508.0000000000000000 ) ) ;
#111 = APPROVAL_ROLE ( '' ) ;
#112 =( NAMED_UNIT ( * ) PLANE_ANGLE_UNIT ( ) SI_UNIT ( $, .RADIAN. ) );
#113 = CC_DESIGN_PERSON_AND_ORGANIZATION_ASSIGNMENT ( #180, #127, ( #20 ) ) ;
#114 = ORIENTED_EDGE ( 'NONE', *, *, #231, .T. ) ;
#115 = ADVANCED_FACE ( 'NONE', ( #260 ), #236, .T. ) ;
#116 = AXIS2_PLACEMENT_3D ( 'NONE', #283, #5, #120 ) ;
#117 = TOROIDAL_SURFACE ( 'NONE', #256, 10.20000000000000107, 0.2000000000000000111 ) ;
#118 = VERTEX_POINT ( 'NONE', #12 ) ;
#119 = ORIENTED_EDGE ( 'NONE', *, *, #261, .T. ) ;
#120 = DIRECTION ( 'NONE',  ( 1.000000000000000000, 0.000000000000000000, -0.000000000000000000 ) ) ;
#121 = ADVANCED_FACE ( 'NONE', ( #104 ), #199, .T. ) ;
#122 = CC_DESIGN_SECURITY_CLASSIFICATION ( #34, ( #20 ) ) ;
#123 = ORIENTED_EDGE ( 'NONE', *, *, #73, .T. ) ;
#124 = DIRECTION ( 'NONE',  ( 1.224646799147353207E-16, 1.000000000000000000, -0.000000000000000000 ) ) ;
#125 = DIRECTION ( 'NONE',  ( -0.000000000000000000, -0.000000000000000000, -1.000000000000000000 ) ) ;
#126 = CARTESIAN_POINT ( 'NONE',  ( 0.000000000000000000, 0.000000000000000000, 8.000000000000000000 ) ) ;
#127 = PERSON_AND_ORGANIZATION_ROLE ( 'design_supplier' ) ;
#128 = EDGE_CURVE ( 'NONE', #158, #286, #246, .T. ) ;
#129 = DIRECTION ( 'NONE',  ( 0.000000000000000000, 0.000000000000000000, 1.000000000000000000 ) ) ;
#130 = PERSON_AND_ORGANIZATION ( #254, #68 ) ;
#131 = CARTESIAN_POINT ( 'NONE',  ( 0.000000000000000000, 0.000000000000000000, 8.000000000000000000 ) ) ;
#132 = DIRECTION ( 'NONE',  ( -0.000000000000000000, -0.000000000000000000, -1.000000000000000000 ) ) ;
#133 = PERSON_AND_ORGANIZATION ( #254, #68 ) ;
#134 = COORDINATED_UNIVERSAL_TIME_OFFSET ( 1, 0, .AHEAD. ) ;
#135 = AXIS2_PLACEMENT_3D ( 'NONE', #213, #234, #263 ) ;
#136 = CIRCLE ( 'NONE', #189, 13.00000000000000178 ) ;
#137 = MANIFOLD_SOLID_BREP ( 'Zaoblit1', #209 ) ;
#138 = ORIENTED_EDGE ( 'NONE', *, *, #128, .T. ) ;
#139 = EDGE_LOOP ( 'NONE', ( #26, #160 ) ) ;
#140 = EDGE_LOOP ( 'NONE', ( #65, #93, #282, #233 ) ) ;
#141 = DIRECTION ( 'NONE',  ( 1.000000000000000000, 0.000000000000000000, 0.000000000000000000 ) ) ;
#142 = PRODUCT ( 'f7a3', 'f7a3', '', ( #171 ) ) ;
#143 = FACE_OUTER_BOUND ( 'NONE', #22, .T. ) ;
#144 = CC_DESIGN_PERSON_AND_ORGANIZATION_ASSIGNMENT ( #220, #58, ( #20 ) ) ;
#145 = CARTESIAN_POINT ( 'NONE',  ( 0.000000000000000000, 0.000000000000000000, 8.000000000000000000 ) ) ;
#146 = CARTESIAN_POINT ( 'NONE',  ( 13.00000000000000178, 1.592040838891559293E-15, 0.000000000000000000 ) ) ;
#147 = PERSON_AND_ORGANIZATION ( #254, #68 ) ;
#148 = DIRECTION ( 'NONE',  ( 1.000000000000000000, 0.000000000000000000, 0.000000000000000000 ) ) ;
#149 = CALENDAR_DATE ( 2022, 7, 7 ) ;
#150 = DIRECTION ( 'NONE',  ( 1.000000000000000000, 0.000000000000000000, 0.000000000000000000 ) ) ;
#151 = EDGE_CURVE ( 'NONE', #280, #303, #61, .T. ) ;
#152 = DIRECTION ( 'NONE',  ( 1.000000000000000000, 0.000000000000000000, 0.000000000000000000 ) ) ;
#153 = FACE_OUTER_BOUND ( 'NONE', #278, .T. ) ;
#154 = DATE_TIME_ROLE ( 'creation_date' ) ;
#155 = VECTOR ( 'NONE', #218, 1000.000000000000000 ) ;
#156 =( LENGTH_UNIT ( ) NAMED_UNIT ( * ) SI_UNIT ( .MILLI., .METRE. ) );
#157 = DATE_AND_TIME ( #299, #182 ) ;
#158 = VERTEX_POINT ( 'NONE', #293 ) ;
#159 = ORIENTED_EDGE ( 'NONE', *, *, #66, .T. ) ;
#160 = ORIENTED_EDGE ( 'NONE', *, *, #285, .T. ) ;
#161 = EDGE_CURVE ( 'NONE', #303, #206, #265, .T. ) ;
#162 = EDGE_LOOP ( 'NONE', ( #184, #3, #30, #29 ) ) ;
#163 = CIRCLE ( 'NONE', #28, 13.00000000000000178 ) ;
#164 = DIRECTION ( 'NONE',  ( 0.000000000000000000, 0.000000000000000000, 1.000000000000000000 ) ) ;
#165 = PLANE ( 'NONE',  #116 ) ;
#166 = AXIS2_PLACEMENT_3D ( 'NONE', #108, #132, #217 ) ;
#167 = LINE ( 'NONE', #71, #276 ) ;
#168 = CARTESIAN_POINT ( 'NONE',  ( 0.000000000000000000, 0.000000000000000000, 8.000000000000000000 ) ) ;
#169 = EDGE_CURVE ( 'NONE', #286, #158, #53, .T. ) ;
#170 = DIRECTION ( 'NONE',  ( 0.000000000000000000, 0.000000000000000000, 1.000000000000000000 ) ) ;
#171 = MECHANICAL_CONTEXT ( 'NONE', #47, 'mechanical' ) ;
#172 = AXIS2_PLACEMENT_3D ( 'NONE', #110, #298, #102 ) ;
#173 = EDGE_CURVE ( 'NONE', #206, #304, #305, .T. ) ;
#174 = CARTESIAN_POINT ( 'NONE',  ( 0.000000000000000000, 0.000000000000000000, 508.0000000000000000 ) ) ;
#175 = DATE_TIME_ROLE ( 'classification_date' ) ;
#176 = EDGE_CURVE ( 'NONE', #215, #280, #42, .T. ) ;
#177 = CARTESIAN_POINT ( 'NONE',  ( 0.000000000000000000, 0.000000000000000000, 0.000000000000000000 ) ) ;
#178 = SECURITY_CLASSIFICATION_LEVEL ( 'unclassified' ) ;
#179 = DIRECTION ( 'NONE',  ( 0.000000000000000000, 0.000000000000000000, 1.000000000000000000 ) ) ;
#180 = PERSON_AND_ORGANIZATION ( #254, #68 ) ;
#181 = ORIENTED_EDGE ( 'NONE', *, *, #207, .F. ) ;
#182 = LOCAL_TIME ( 14, 17, 32.00000000000000000, #203 ) ;
#183 = APPLICATION_PROTOCOL_DEFINITION ( 'international standard', 'config_control_design', 1994, #47 ) ;
#184 = ORIENTED_EDGE ( 'NONE', *, *, #151, .F. ) ;
#185 = AXIS2_PLACEMENT_3D ( 'NONE', #195, #40, #241 ) ;
#186 = EDGE_LOOP ( 'NONE', ( #119, #289 ) ) ;
#187 = DIRECTION ( 'NONE',  ( -0.000000000000000000, -0.000000000000000000, -1.000000000000000000 ) ) ;
#188 = CARTESIAN_POINT ( 'NONE',  ( 0.000000000000000000, 0.000000000000000000, 8.000000000000000000 ) ) ;
#189 = AXIS2_PLACEMENT_3D ( 'NONE', #168, #170, #244 ) ;
#190 = APPROVAL_PERSON_ORGANIZATION ( #38, #63, #44 ) ;
#191 = PLANE ( 'NONE',  #107 ) ;
#192 = CARTESIAN_POINT ( 'NONE',  ( -10.20000000000000107, 1.249139735130300365E-15, 8.199999999999985079 ) ) ;
#193 = FACE_OUTER_BOUND ( 'NONE', #139, .T. ) ;
#194 = ADVANCED_FACE ( 'NONE', ( #270 ), #117, .F. ) ;
#195 = CARTESIAN_POINT ( 'NONE',  ( 10.20000000000000107, 0.000000000000000000, 8.199999999999985079 ) ) ;
#196 = CARTESIAN_POINT ( 'NONE',  ( 10.00000000000000000, 1.224646799147353256E-15, 508.0000000000000000 ) ) ;
#197 = PERSON_AND_ORGANIZATION ( #254, #68 ) ;
#198 = CC_DESIGN_PERSON_AND_ORGANIZATION_ASSIGNMENT ( #295, #247, ( #142 ) ) ;
#199 = CYLINDRICAL_SURFACE ( 'NONE', #264, 10.00000000000000000 ) ;
#200 = CARTESIAN_POINT ( 'NONE',  ( 10.00000000000000000, 1.224646799147353256E-15, 508.0000000000000000 ) ) ;
#201 = APPROVAL_STATUS ( 'not_yet_approved' ) ;
#202 = CARTESIAN_POINT ( 'NONE',  ( -10.00000000000000000, 0.000000000000000000, 508.0000000000000000 ) ) ;
#203 = COORDINATED_UNIVERSAL_TIME_OFFSET ( 1, 0, .AHEAD. ) ;
#204 = DIRECTION ( 'NONE',  ( 0.000000000000000000, 0.000000000000000000, 1.000000000000000000 ) ) ;
#205 = CIRCLE ( 'NONE', #172, 10.00000000000000000 ) ;
#206 = VERTEX_POINT ( 'NONE', #296 ) ;
#207 = EDGE_CURVE ( 'NONE', #230, #303, #8, .T. ) ;
#208 = CIRCLE ( 'NONE', #245, 0.2000000000000005107 ) ;
#209 = CLOSED_SHELL ( 'NONE', ( #105, #248, #115, #23, #67, #9, #121, #99, #194 ) ) ;
#210 = AXIS2_PLACEMENT_3D ( 'NONE', #174, #290, #275 ) ;
#211 = EDGE_LOOP ( 'NONE', ( #52, #252 ) ) ;
#212 = FACE_OUTER_BOUND ( 'NONE', #211, .T. ) ;
#213 = CARTESIAN_POINT ( 'NONE',  ( 0.000000000000000000, 0.000000000000000000, 508.0000000000000000 ) ) ;
#214 = CC_DESIGN_APPROVAL ( #287, ( #20 ) ) ;
#215 = VERTEX_POINT ( 'NONE', #87 ) ;
#216 = EDGE_LOOP ( 'NONE', ( #91, #4, #97, #64 ) ) ;
#217 = DIRECTION ( 'NONE',  ( 1.000000000000000000, 0.000000000000000000, 0.000000000000000000 ) ) ;
#218 = DIRECTION ( 'NONE',  ( -0.000000000000000000, -0.000000000000000000, -1.000000000000000000 ) ) ;
#219 = DIRECTION ( 'NONE',  ( -1.000000000000000000, 0.000000000000000000, 0.000000000000000000 ) ) ;
#220 = PERSON_AND_ORGANIZATION ( #254, #68 ) ;
#221 = DIRECTION ( 'NONE',  ( -1.000000000000000000, 0.000000000000000000, 0.000000000000000000 ) ) ;
#222 = CIRCLE ( 'NONE', #262, 10.00000000000000000 ) ;
#223 = LINE ( 'NONE', #56, #227 ) ;
#224 = AXIS2_PLACEMENT_3D ( 'NONE', #10, #179, #82 ) ;
#225 = COORDINATED_UNIVERSAL_TIME_OFFSET ( 1, 0, .AHEAD. ) ;
#226 = ORIENTED_EDGE ( 'NONE', *, *, #161, .F. ) ;
#227 = VECTOR ( 'NONE', #125, 1000.000000000000000 ) ;
#228 = EDGE_CURVE ( 'NONE', #215, #230, #59, .T. ) ;
#229 = AXIS2_PLACEMENT_3D ( 'NONE', #79, #237, #219 ) ;
#230 = VERTEX_POINT ( 'NONE', #55 ) ;
#231 = EDGE_CURVE ( 'NONE', #304, #206, #2, .T. ) ;
#232 = ORIENTED_EDGE ( 'NONE', *, *, #173, .T. ) ;
#233 = ORIENTED_EDGE ( 'NONE', *, *, #73, .F. ) ;
#234 = DIRECTION ( 'NONE',  ( 0.000000000000000000, 0.000000000000000000, 1.000000000000000000 ) ) ;
#235 = LOCAL_TIME ( 14, 17, 32.00000000000000000, #62 ) ;
#236 = CYLINDRICAL_SURFACE ( 'NONE', #17, 13.00000000000000178 ) ;
#237 = DIRECTION ( 'NONE',  ( -0.000000000000000000, -0.000000000000000000, -1.000000000000000000 ) ) ;
#238 = CARTESIAN_POINT ( 'NONE',  ( 10.00000000000000000, 1.224646799147353256E-15, 8.199999999999985079 ) ) ;
#239 = CC_DESIGN_PERSON_AND_ORGANIZATION_ASSIGNMENT ( #197, #277, ( #34 ) ) ;
#240 = COORDINATED_UNIVERSAL_TIME_OFFSET ( 1, 0, .AHEAD. ) ;
#241 = DIRECTION ( 'NONE',  ( 0.000000000000000000, 0.000000000000000000, -1.000000000000000000 ) ) ;
#242 = APPROVAL_STATUS ( 'not_yet_approved' ) ;
#243 = DIRECTION ( 'NONE',  ( 1.000000000000000000, 0.000000000000000000, 0.000000000000000000 ) ) ;
#244 = DIRECTION ( 'NONE',  ( 1.000000000000000000, 0.000000000000000000, 0.000000000000000000 ) ) ;
#245 = AXIS2_PLACEMENT_3D ( 'NONE', #192, #124, #95 ) ;
#246 = CIRCLE ( 'NONE', #48, 13.00000000000000178 ) ;
#247 = PERSON_AND_ORGANIZATION_ROLE ( 'design_owner' ) ;
#248 = ADVANCED_FACE ( 'NONE', ( #153 ), #39, .T. ) ;
#249 = DATE_AND_TIME ( #149, #235 ) ;
#250 = ORIENTED_EDGE ( 'NONE', *, *, #273, .F. ) ;
#251 = CC_DESIGN_APPROVAL ( #63, ( #34 ) ) ;
#252 = ORIENTED_EDGE ( 'NONE', *, *, #169, .F. ) ;
#253 = ORIENTED_EDGE ( 'NONE', *, *, #151, .T. ) ;
#254 = PERSON ( 'NEURÈENÝ', 'NEURÈENÝ', 'NEURÈENÝ', ('NEURÈENÝ'), ('NEURÈENÝ'), ('NEURÈENÝ') ) ;
#255 = VERTEX_POINT ( 'NONE', #37 ) ;
#256 = AXIS2_PLACEMENT_3D ( 'NONE', #60, #291, #80 ) ;
#257 = APPLICATION_CONTEXT ( 'configuration controlled 3d designs of mechanical parts and assemblies' ) ;
#258 = DIRECTION ( 'NONE',  ( 0.000000000000000000, 0.000000000000000000, 1.000000000000000000 ) ) ;
#259 = EDGE_CURVE ( 'NONE', #118, #255, #163, .T. ) ;
#260 = FACE_OUTER_BOUND ( 'NONE', #140, .T. ) ;
#261 = EDGE_CURVE ( 'NONE', #255, #118, #136, .T. ) ;
#262 = AXIS2_PLACEMENT_3D ( 'NONE', #75, #164, #307 ) ;
#263 = DIRECTION ( 'NONE',  ( 1.000000000000000000, 0.000000000000000000, -0.000000000000000000 ) ) ;
#264 = AXIS2_PLACEMENT_3D ( 'NONE', #7, #33, #221 ) ;
#265 = CIRCLE ( 'NONE', #185, 0.2000000000000005107 ) ;
#266 = DIRECTION ( 'NONE',  ( 0.000000000000000000, 0.000000000000000000, 1.000000000000000000 ) ) ;
#267 = DIRECTION ( 'NONE',  ( -0.000000000000000000, -0.000000000000000000, -1.000000000000000000 ) ) ;
#268 = DIRECTION ( 'NONE',  ( -0.000000000000000000, -0.000000000000000000, -1.000000000000000000 ) ) ;
#269 =( GEOMETRIC_REPRESENTATION_CONTEXT ( 3 ) GLOBAL_UNCERTAINTY_ASSIGNED_CONTEXT ( ( #6 ) ) GLOBAL_UNIT_ASSIGNED_CONTEXT ( ( #156, #112, #292 ) ) REPRESENTATION_CONTEXT ( 'NONE', 'WORKASPACE' ) );
#270 = FACE_OUTER_BOUND ( 'NONE', #216, .T. ) ;
#271 = SHAPE_DEFINITION_REPRESENTATION ( #294, #92 ) ;
#272 = DIRECTION ( 'NONE',  ( 0.000000000000000000, 0.000000000000000000, 1.000000000000000000 ) ) ;
#273 = EDGE_CURVE ( 'NONE', #118, #286, #223, .T. ) ;
#274 = APPROVAL_STATUS ( 'not_yet_approved' ) ;
#275 = DIRECTION ( 'NONE',  ( 1.000000000000000000, 0.000000000000000000, 0.000000000000000000 ) ) ;
#276 = VECTOR ( 'NONE', #187, 1000.000000000000000 ) ;
#277 = PERSON_AND_ORGANIZATION_ROLE ( 'classification_officer' ) ;
#278 = EDGE_LOOP ( 'NONE', ( #77, #253, #69, #50 ) ) ;
#279 = APPLICATION_PROTOCOL_DEFINITION ( 'international standard', 'config_control_design', 1994, #257 ) ;
#280 = VERTEX_POINT ( 'NONE', #196 ) ;
#281 = EDGE_LOOP ( 'NONE', ( #250, #45, #123, #138 ) ) ;
#282 = ORIENTED_EDGE ( 'NONE', *, *, #169, .T. ) ;
#283 = CARTESIAN_POINT ( 'NONE',  ( 0.000000000000000000, 0.000000000000000000, 8.000000000000000000 ) ) ;
#284 = FACE_OUTER_BOUND ( 'NONE', #186, .T. ) ;
#285 = EDGE_CURVE ( 'NONE', #280, #215, #205, .T. ) ;
#286 = VERTEX_POINT ( 'NONE', #146 ) ;
#287 = APPROVAL ( #201, 'NEURÈENÝ' ) ;
#288 = FACE_BOUND ( 'NONE', #96, .T. ) ;
#289 = ORIENTED_EDGE ( 'NONE', *, *, #259, .T. ) ;
#290 = DIRECTION ( 'NONE',  ( 0.000000000000000000, 0.000000000000000000, 1.000000000000000000 ) ) ;
#291 = DIRECTION ( 'NONE',  ( 0.000000000000000000, 0.000000000000000000, 1.000000000000000000 ) ) ;
#292 =( NAMED_UNIT ( * ) SI_UNIT ( $, .STERADIAN. ) SOLID_ANGLE_UNIT ( ) );
#293 = CARTESIAN_POINT ( 'NONE',  ( -13.00000000000000178, 0.000000000000000000, 0.000000000000000000 ) ) ;
#294 = PRODUCT_DEFINITION_SHAPE ( 'NONE', 'NONE',  #88 ) ;
#295 = PERSON_AND_ORGANIZATION ( #254, #68 ) ;
#296 = CARTESIAN_POINT ( 'NONE',  ( 10.20000000000000107, 0.000000000000000000, 7.999999999999992895 ) ) ;
#297 = CALENDAR_DATE ( 2022, 7, 7 ) ;
#298 = DIRECTION ( 'NONE',  ( 0.000000000000000000, 0.000000000000000000, 1.000000000000000000 ) ) ;
#299 = CALENDAR_DATE ( 2022, 7, 7 ) ;
#300 = AXIS2_PLACEMENT_3D ( 'NONE', #18, #129, #150 ) ;
#301 = CC_DESIGN_PERSON_AND_ORGANIZATION_ASSIGNMENT ( #133, #81, ( #88 ) ) ;
#302 = AXIS2_PLACEMENT_3D ( 'NONE', #126, #267, #243 ) ;
#303 = VERTEX_POINT ( 'NONE', #238 ) ;
#304 = VERTEX_POINT ( 'NONE', #43 ) ;
#305 = CIRCLE ( 'NONE', #166, 10.20000000000000107 ) ;
#306 = DIRECTION ( 'NONE',  ( -0.000000000000000000, -0.000000000000000000, -1.000000000000000000 ) ) ;
#307 = DIRECTION ( 'NONE',  ( 1.000000000000000000, 0.000000000000000000, 0.000000000000000000 ) ) ;
ENDSEC;
END-ISO-10303-21;
