ISO-10303-21;
HEADER;
FILE_DESCRIPTION (( 'STEP AP203' ),
    '1' );
FILE_NAME ('e27e.STEP',
    '2022-07-07T12:24:36',
    ( '' ),
    ( '' ),
    'SwSTEP 2.0',
    'SolidWorks 2019',
    '' );
FILE_SCHEMA (( 'CONFIG_CONTROL_DESIGN' ));
ENDSEC;

DATA;
#1 = PERSON_AND_ORGANIZATION_ROLE ( 'design_supplier' ) ;
#2 = EDGE_CURVE ( 'NONE', #20, #300, #134, .T. ) ;
#3 = EDGE_LOOP ( 'NONE', ( #119, #307 ) ) ;
#4 = DATE_TIME_ROLE ( 'classification_date' ) ;
#5 = ORIENTED_EDGE ( 'NONE', *, *, #197, .T. ) ;
#6 = AXIS2_PLACEMENT_3D ( 'NONE', #165, #286, #236 ) ;
#7 = LOCAL_TIME ( 14, 24, 36.00000000000000000, #168 ) ;
#8 = CARTESIAN_POINT ( 'NONE',  ( 5.699999999999999289, 0.000000000000000000, 5.199999999999982414 ) ) ;
#9 = DIRECTION ( 'NONE',  ( 0.000000000000000000, 0.000000000000000000, 1.000000000000000000 ) ) ;
#10 = APPLICATION_PROTOCOL_DEFINITION ( 'international standard', 'config_control_design', 1994, #159 ) ;
#11 = DIRECTION ( 'NONE',  ( 1.000000000000000000, 0.000000000000000000, 0.000000000000000000 ) ) ;
#12 = CARTESIAN_POINT ( 'NONE',  ( -8.000000000000000000, 0.000000000000000000, 0.000000000000000000 ) ) ;
#13 = CARTESIAN_POINT ( 'NONE',  ( 5.699999999999999289, 0.000000000000000000, 4.999999999999991118 ) ) ;
#14 = CIRCLE ( 'NONE', #116, 8.000000000000000000 ) ;
#15 = CC_DESIGN_APPROVAL ( #99, ( #169 ) ) ;
#16 = ORIENTED_EDGE ( 'NONE', *, *, #38, .T. ) ;
#17 = EDGE_LOOP ( 'NONE', ( #85, #65, #113, #255 ) ) ;
#18 = EDGE_CURVE ( 'NONE', #139, #115, #50, .T. ) ;
#19 = LOCAL_TIME ( 14, 24, 36.00000000000000000, #114 ) ;
#20 = VERTEX_POINT ( 'NONE', #187 ) ;
#21 = DIRECTION ( 'NONE',  ( 0.000000000000000000, 0.000000000000000000, 1.000000000000000000 ) ) ;
#22 = DIRECTION ( 'NONE',  ( -1.000000000000000000, 0.000000000000000000, 0.000000000000000000 ) ) ;
#23 = ADVANCED_FACE ( 'NONE', ( #144 ), #137, .T. ) ;
#24 = VERTEX_POINT ( 'NONE', #263 ) ;
#25 = TOROIDAL_SURFACE ( 'NONE', #278, 5.699999999999999289, 0.2000000000000000111 ) ;
#26 = PERSON_AND_ORGANIZATION ( #146, #273 ) ;
#27 = DIRECTION ( 'NONE',  ( -0.000000000000000000, -0.000000000000000000, -1.000000000000000000 ) ) ;
#28 = APPROVAL_ROLE ( '' ) ;
#29 = CYLINDRICAL_SURFACE ( 'NONE', #227, 5.500000000000000000 ) ;
#30 = CC_DESIGN_APPROVAL ( #276, ( #184 ) ) ;
#31 = CARTESIAN_POINT ( 'NONE',  ( -5.699999999999999289, 6.980486755139912122E-16, 5.199999999999982414 ) ) ;
#32 = DIRECTION ( 'NONE',  ( 0.000000000000000000, 0.000000000000000000, 1.000000000000000000 ) ) ;
#33 = DIRECTION ( 'NONE',  ( 1.000000000000000000, 0.000000000000000000, 0.000000000000000000 ) ) ;
#34 = CC_DESIGN_PERSON_AND_ORGANIZATION_ASSIGNMENT ( #283, #188, ( #302 ) ) ;
#35 = CARTESIAN_POINT ( 'NONE',  ( 0.000000000000000000, 0.000000000000000000, 0.000000000000000000 ) ) ;
#36 = DIRECTION ( 'NONE',  ( 0.000000000000000000, 0.000000000000000000, 1.000000000000000000 ) ) ;
#37 = AXIS2_PLACEMENT_3D ( 'NONE', #31, #53, #149 ) ;
#38 = EDGE_CURVE ( 'NONE', #217, #275, #256, .T. ) ;
#39 = EDGE_LOOP ( 'NONE', ( #93, #131, #117, #87 ) ) ;
#40 = CC_DESIGN_PERSON_AND_ORGANIZATION_ASSIGNMENT ( #287, #118, ( #169 ) ) ;
#41 = ORIENTED_EDGE ( 'NONE', *, *, #2, .F. ) ;
#42 = CIRCLE ( 'NONE', #222, 5.699999999999999289 ) ;
#43 = ORIENTED_EDGE ( 'NONE', *, *, #62, .T. ) ;
#44 = PERSON_AND_ORGANIZATION_ROLE ( 'design_owner' ) ;
#45 = EDGE_LOOP ( 'NONE', ( #281, #284, #97, #16 ) ) ;
#46 = ADVANCED_FACE ( 'NONE', ( #259 ), #214, .T. ) ;
#47 = CARTESIAN_POINT ( 'NONE',  ( 0.000000000000000000, 0.000000000000000000, 320.0000000000000000 ) ) ;
#48 = EDGE_CURVE ( 'NONE', #66, #69, #288, .T. ) ;
#49 = DIRECTION ( 'NONE',  ( 1.000000000000000000, 0.000000000000000000, 0.000000000000000000 ) ) ;
#50 = CIRCLE ( 'NONE', #6, 8.000000000000000000 ) ;
#51 = ADVANCED_FACE ( 'NONE', ( #202 ), #237, .F. ) ;
#52 = COORDINATED_UNIVERSAL_TIME_OFFSET ( 1, 0, .AHEAD. ) ;
#53 = DIRECTION ( 'NONE',  ( 1.224646799147353207E-16, 1.000000000000000000, -0.000000000000000000 ) ) ;
#54 = DIRECTION ( 'NONE',  ( 0.000000000000000000, 0.000000000000000000, 1.000000000000000000 ) ) ;
#55 = VERTEX_POINT ( 'NONE', #13 ) ;
#56 = CARTESIAN_POINT ( 'NONE',  ( 0.000000000000000000, 0.000000000000000000, 5.000000000000000000 ) ) ;
#57 = EDGE_CURVE ( 'NONE', #139, #275, #105, .T. ) ;
#58 = CARTESIAN_POINT ( 'NONE',  ( 0.000000000000000000, 0.000000000000000000, 320.0000000000000000 ) ) ;
#59 = DIRECTION ( 'NONE',  ( 0.000000000000000000, -1.000000000000000000, 0.000000000000000000 ) ) ;
#60 = DIRECTION ( 'NONE',  ( 1.000000000000000000, 0.000000000000000000, 0.000000000000000000 ) ) ;
#61 = PLANE ( 'NONE',  #109 ) ;
#62 = EDGE_CURVE ( 'NONE', #24, #55, #42, .T. ) ;
#63 = EDGE_LOOP ( 'NONE', ( #90, #43 ) ) ;
#64 = AXIS2_PLACEMENT_3D ( 'NONE', #47, #36, #11 ) ;
#65 = ORIENTED_EDGE ( 'NONE', *, *, #232, .T. ) ;
#66 = VERTEX_POINT ( 'NONE', #204 ) ;
#67 = ORIENTED_EDGE ( 'NONE', *, *, #245, .F. ) ;
#68 = SHAPE_DEFINITION_REPRESENTATION ( #170, #107 ) ;
#69 = VERTEX_POINT ( 'NONE', #242 ) ;
#70 = DATE_AND_TIME ( #190, #19 ) ;
#71 = DIRECTION ( 'NONE',  ( 0.000000000000000000, 0.000000000000000000, 1.000000000000000000 ) ) ;
#72 = PERSON_AND_ORGANIZATION_ROLE ( 'creator' ) ;
#73 = VECTOR ( 'NONE', #180, 1000.000000000000000 ) ;
#74 = APPROVAL_DATE_TIME ( #140, #147 ) ;
#75 = DIRECTION ( 'NONE',  ( 0.000000000000000000, 0.000000000000000000, 1.000000000000000000 ) ) ;
#76 =( NAMED_UNIT ( * ) PLANE_ANGLE_UNIT ( ) SI_UNIT ( $, .RADIAN. ) );
#77 = DIRECTION ( 'NONE',  ( 1.000000000000000000, 0.000000000000000000, 0.000000000000000000 ) ) ;
#78 = DIRECTION ( 'NONE',  ( 0.000000000000000000, 0.000000000000000000, 1.000000000000000000 ) ) ;
#79 = AXIS2_PLACEMENT_3D ( 'NONE', #175, #293, #77 ) ;
#80 = DIRECTION ( 'NONE',  ( 1.000000000000000000, 0.000000000000000000, -0.000000000000000000 ) ) ;
#81 =( NAMED_UNIT ( * ) SI_UNIT ( $, .STERADIAN. ) SOLID_ANGLE_UNIT ( ) );
#82 = DIRECTION ( 'NONE',  ( -0.000000000000000000, -0.000000000000000000, -1.000000000000000000 ) ) ;
#83 = AXIS2_PLACEMENT_3D ( 'NONE', #290, #75, #80 ) ;
#84 = CC_DESIGN_DATE_AND_TIME_ASSIGNMENT ( #70, #4, ( #169 ) ) ;
#85 = ORIENTED_EDGE ( 'NONE', *, *, #209, .F. ) ;
#86 = APPROVAL_DATE_TIME ( #216, #276 ) ;
#87 = ORIENTED_EDGE ( 'NONE', *, *, #2, .T. ) ;
#88 = PERSON_AND_ORGANIZATION ( #146, #273 ) ;
#89 = CIRCLE ( 'NONE', #121, 8.000000000000000000 ) ;
#90 = ORIENTED_EDGE ( 'NONE', *, *, #195, .T. ) ;
#91 = ADVANCED_FACE ( 'NONE', ( #225 ), #29, .T. ) ;
#92 = PERSON_AND_ORGANIZATION ( #146, #273 ) ;
#93 = ORIENTED_EDGE ( 'NONE', *, *, #232, .F. ) ;
#94 = CC_DESIGN_PERSON_AND_ORGANIZATION_ASSIGNMENT ( #238, #1, ( #302 ) ) ;
#95 = AXIS2_PLACEMENT_3D ( 'NONE', #35, #54, #291 ) ;
#96 = FACE_OUTER_BOUND ( 'NONE', #3, .T. ) ;
#97 = ORIENTED_EDGE ( 'NONE', *, *, #295, .T. ) ;
#98 = CARTESIAN_POINT ( 'NONE',  ( 0.000000000000000000, 0.000000000000000000, 5.199999999999982414 ) ) ;
#99 = APPROVAL ( #142, 'NEURÈENÝ' ) ;
#100 = FACE_OUTER_BOUND ( 'NONE', #39, .T. ) ;
#101 = MECHANICAL_CONTEXT ( 'NONE', #159, 'mechanical' ) ;
#102 = DIRECTION ( 'NONE',  ( 0.000000000000000000, 0.000000000000000000, -1.000000000000000000 ) ) ;
#103 = DIRECTION ( 'NONE',  ( -0.000000000000000000, -0.000000000000000000, -1.000000000000000000 ) ) ;
#104 = CIRCLE ( 'NONE', #186, 5.500000000000000000 ) ;
#105 = LINE ( 'NONE', #148, #73 ) ;
#106 = CARTESIAN_POINT ( 'NONE',  ( 5.500000000000000000, 6.735557395310442023E-16, 320.0000000000000000 ) ) ;
#107 = ADVANCED_BREP_SHAPE_REPRESENTATION ( 'e27e', ( #171, #274 ), #128 ) ;
#108 = EDGE_CURVE ( 'NONE', #66, #20, #152, .T. ) ;
#109 = AXIS2_PLACEMENT_3D ( 'NONE', #58, #205, #125 ) ;
#110 = EDGE_CURVE ( 'NONE', #275, #217, #89, .T. ) ;
#111 = APPROVAL_PERSON_ORGANIZATION ( #306, #147, #220 ) ;
#112 = CARTESIAN_POINT ( 'NONE',  ( 0.000000000000000000, 0.000000000000000000, 0.000000000000000000 ) ) ;
#113 = ORIENTED_EDGE ( 'NONE', *, *, #245, .T. ) ;
#114 = COORDINATED_UNIVERSAL_TIME_OFFSET ( 1, 0, .AHEAD. ) ;
#115 = VERTEX_POINT ( 'NONE', #269 ) ;
#116 = AXIS2_PLACEMENT_3D ( 'NONE', #124, #298, #270 ) ;
#117 = ORIENTED_EDGE ( 'NONE', *, *, #108, .T. ) ;
#118 = PERSON_AND_ORGANIZATION_ROLE ( 'classification_officer' ) ;
#119 = ORIENTED_EDGE ( 'NONE', *, *, #130, .T. ) ;
#120 = CARTESIAN_POINT ( 'NONE',  ( -5.500000000000000000, 0.000000000000000000, 320.0000000000000000 ) ) ;
#121 = AXIS2_PLACEMENT_3D ( 'NONE', #246, #32, #221 ) ;
#122 = DIRECTION ( 'NONE',  ( 0.000000000000000000, 0.000000000000000000, 1.000000000000000000 ) ) ;
#123 = CARTESIAN_POINT ( 'NONE',  ( 0.000000000000000000, 0.000000000000000000, 320.0000000000000000 ) ) ;
#124 = CARTESIAN_POINT ( 'NONE',  ( 0.000000000000000000, 0.000000000000000000, 5.000000000000000000 ) ) ;
#125 = DIRECTION ( 'NONE',  ( 1.000000000000000000, 0.000000000000000000, -0.000000000000000000 ) ) ;
#126 = DIRECTION ( 'NONE',  ( 1.000000000000000000, 0.000000000000000000, 0.000000000000000000 ) ) ;
#127 = FACE_OUTER_BOUND ( 'NONE', #160, .T. ) ;
#128 =( GEOMETRIC_REPRESENTATION_CONTEXT ( 3 ) GLOBAL_UNCERTAINTY_ASSIGNED_CONTEXT ( ( #292 ) ) GLOBAL_UNIT_ASSIGNED_CONTEXT ( ( #223, #76, #81 ) ) REPRESENTATION_CONTEXT ( 'NONE', 'WORKASPACE' ) );
#129 = DIRECTION ( 'NONE',  ( 1.000000000000000000, 0.000000000000000000, 0.000000000000000000 ) ) ;
#130 = EDGE_CURVE ( 'NONE', #115, #139, #14, .T. ) ;
#131 = ORIENTED_EDGE ( 'NONE', *, *, #48, .F. ) ;
#132 = APPROVAL_PERSON_ORGANIZATION ( #26, #276, #258 ) ;
#133 = ORIENTED_EDGE ( 'NONE', *, *, #18, .F. ) ;
#134 = CIRCLE ( 'NONE', #185, 5.500000000000000000 ) ;
#135 = CC_DESIGN_APPROVAL ( #147, ( #302 ) ) ;
#136 = LOCAL_TIME ( 14, 24, 36.00000000000000000, #262 ) ;
#137 = CYLINDRICAL_SURFACE ( 'NONE', #251, 8.000000000000000000 ) ;
#138 = DATE_TIME_ROLE ( 'creation_date' ) ;
#139 = VERTEX_POINT ( 'NONE', #178 ) ;
#140 = DATE_AND_TIME ( #196, #136 ) ;
#141 = ORIENTED_EDGE ( 'NONE', *, *, #110, .F. ) ;
#142 = APPROVAL_STATUS ( 'not_yet_approved' ) ;
#143 = AXIS2_PLACEMENT_3D ( 'NONE', #8, #59, #102 ) ;
#144 = FACE_OUTER_BOUND ( 'NONE', #45, .T. ) ;
#145 = DATE_AND_TIME ( #213, #268 ) ;
#146 = PERSON ( 'NEURÈENÝ', 'NEURÈENÝ', 'NEURÈENÝ', ('NEURÈENÝ'), ('NEURÈENÝ'), ('NEURÈENÝ') ) ;
#147 = APPROVAL ( #289, 'NEURÈENÝ' ) ;
#148 = CARTESIAN_POINT ( 'NONE',  ( 8.000000000000000000, 9.797174393178825657E-16, 5.000000000000000000 ) ) ;
#149 = DIRECTION ( 'NONE',  ( -1.000000000000000000, 1.224646799147353454E-16, 0.000000000000000000 ) ) ;
#150 = DIRECTION ( 'NONE',  ( 0.000000000000000000, 0.000000000000000000, 1.000000000000000000 ) ) ;
#151 = AXIS2_PLACEMENT_3D ( 'NONE', #112, #21, #49 ) ;
#152 = LINE ( 'NONE', #120, #297 ) ;
#153 = CARTESIAN_POINT ( 'NONE',  ( -8.000000000000000000, 0.000000000000000000, 5.000000000000000000 ) ) ;
#154 = CARTESIAN_POINT ( 'NONE',  ( 0.000000000000000000, 0.000000000000000000, 320.0000000000000000 ) ) ;
#155 = CC_DESIGN_DATE_AND_TIME_ASSIGNMENT ( #145, #138, ( #184 ) ) ;
#156 = FACE_BOUND ( 'NONE', #63, .T. ) ;
#157 = AXIS2_PLACEMENT_3D ( 'NONE', #98, #78, #33 ) ;
#158 = EDGE_CURVE ( 'NONE', #300, #55, #161, .T. ) ;
#159 = APPLICATION_CONTEXT ( 'configuration controlled 3d designs of mechanical parts and assemblies' ) ;
#160 = EDGE_LOOP ( 'NONE', ( #212, #162 ) ) ;
#161 = CIRCLE ( 'NONE', #143, 0.1999999999999996503 ) ;
#162 = ORIENTED_EDGE ( 'NONE', *, *, #209, .T. ) ;
#163 = ORIENTED_EDGE ( 'NONE', *, *, #158, .T. ) ;
#164 = CARTESIAN_POINT ( 'NONE',  ( 0.000000000000000000, 0.000000000000000000, 5.199999999999982414 ) ) ;
#165 = CARTESIAN_POINT ( 'NONE',  ( 0.000000000000000000, 0.000000000000000000, 5.000000000000000000 ) ) ;
#166 = DATE_AND_TIME ( #240, #7 ) ;
#167 = DIRECTION ( 'NONE',  ( -1.000000000000000000, 0.000000000000000000, 0.000000000000000000 ) ) ;
#168 = COORDINATED_UNIVERSAL_TIME_OFFSET ( 1, 0, .AHEAD. ) ;
#169 = SECURITY_CLASSIFICATION ( '', '', #193 ) ;
#170 = PRODUCT_DEFINITION_SHAPE ( 'NONE', 'NONE',  #184 ) ;
#171 = MANIFOLD_SOLID_BREP ( 'Zaoblit1', #272 ) ;
#172 = CARTESIAN_POINT ( 'NONE',  ( 0.000000000000000000, 0.000000000000000000, 5.000000000000000000 ) ) ;
#173 = CARTESIAN_POINT ( 'NONE',  ( 0.000000000000000000, 0.000000000000000000, 0.000000000000000000 ) ) ;
#174 = ADVANCED_FACE ( 'NONE', ( #200 ), #25, .F. ) ;
#175 = CARTESIAN_POINT ( 'NONE',  ( 0.000000000000000000, 0.000000000000000000, 5.199999999999982414 ) ) ;
#176 = PLANE ( 'NONE',  #95 ) ;
#177 = CC_DESIGN_SECURITY_CLASSIFICATION ( #169, ( #302 ) ) ;
#178 = CARTESIAN_POINT ( 'NONE',  ( 8.000000000000000000, 9.797174393178825657E-16, 5.000000000000000000 ) ) ;
#179 = CARTESIAN_POINT ( 'NONE',  ( 8.000000000000000000, 9.797174393178825657E-16, 0.000000000000000000 ) ) ;
#180 = DIRECTION ( 'NONE',  ( -0.000000000000000000, -0.000000000000000000, -1.000000000000000000 ) ) ;
#181 = PRODUCT_RELATED_PRODUCT_CATEGORY ( 'detail', '', ( #305 ) ) ;
#182 = APPROVAL_PERSON_ORGANIZATION ( #92, #99, #28 ) ;
#183 = ADVANCED_FACE ( 'NONE', ( #156, #96 ), #296, .T. ) ;
#184 = PRODUCT_DEFINITION ( 'NEZNÁMÝ', '', #302, #241 ) ;
#185 = AXIS2_PLACEMENT_3D ( 'NONE', #164, #71, #231 ) ;
#186 = AXIS2_PLACEMENT_3D ( 'NONE', #243, #122, #224 ) ;
#187 = CARTESIAN_POINT ( 'NONE',  ( -5.500000000000000000, 0.000000000000000000, 5.199999999999982414 ) ) ;
#188 = PERSON_AND_ORGANIZATION_ROLE ( 'creator' ) ;
#189 = EDGE_LOOP ( 'NONE', ( #279, #67, #163, #229 ) ) ;
#190 = CALENDAR_DATE ( 2022, 7, 7 ) ;
#191 = EDGE_LOOP ( 'NONE', ( #41, #5, #228, #303 ) ) ;
#192 = APPLICATION_CONTEXT ( 'configuration controlled 3d designs of mechanical parts and assemblies' ) ;
#193 = SECURITY_CLASSIFICATION_LEVEL ( 'unclassified' ) ;
#194 = ORIENTED_EDGE ( 'NONE', *, *, #295, .F. ) ;
#195 = EDGE_CURVE ( 'NONE', #55, #24, #206, .T. ) ;
#196 = CALENDAR_DATE ( 2022, 7, 7 ) ;
#197 = EDGE_CURVE ( 'NONE', #20, #24, #257, .T. ) ;
#198 = APPLICATION_PROTOCOL_DEFINITION ( 'international standard', 'config_control_design', 1994, #192 ) ;
#199 = AXIS2_PLACEMENT_3D ( 'NONE', #304, #233, #22 ) ;
#200 = FACE_OUTER_BOUND ( 'NONE', #191, .T. ) ;
#201 = LINE ( 'NONE', #153, #282 ) ;
#202 = FACE_OUTER_BOUND ( 'NONE', #189, .T. ) ;
#203 = DIRECTION ( 'NONE',  ( -0.000000000000000000, -0.000000000000000000, -1.000000000000000000 ) ) ;
#204 = CARTESIAN_POINT ( 'NONE',  ( -5.500000000000000000, 0.000000000000000000, 320.0000000000000000 ) ) ;
#205 = DIRECTION ( 'NONE',  ( 0.000000000000000000, 0.000000000000000000, 1.000000000000000000 ) ) ;
#206 = CIRCLE ( 'NONE', #230, 5.699999999999999289 ) ;
#207 = DIRECTION ( 'NONE',  ( -1.000000000000000000, 0.000000000000000000, 0.000000000000000000 ) ) ;
#208 = LINE ( 'NONE', #106, #299 ) ;
#209 = EDGE_CURVE ( 'NONE', #69, #66, #104, .T. ) ;
#210 = ADVANCED_FACE ( 'NONE', ( #100 ), #271, .T. ) ;
#211 = LOCAL_TIME ( 14, 24, 36.00000000000000000, #52 ) ;
#212 = ORIENTED_EDGE ( 'NONE', *, *, #48, .T. ) ;
#213 = CALENDAR_DATE ( 2022, 7, 7 ) ;
#214 = CYLINDRICAL_SURFACE ( 'NONE', #199, 8.000000000000000000 ) ;
#215 = ADVANCED_FACE ( 'NONE', ( #127 ), #61, .T. ) ;
#216 = DATE_AND_TIME ( #260, #211 ) ;
#217 = VERTEX_POINT ( 'NONE', #12 ) ;
#218 = PERSON_AND_ORGANIZATION ( #146, #273 ) ;
#219 = ORIENTED_EDGE ( 'NONE', *, *, #38, .F. ) ;
#220 = APPROVAL_ROLE ( '' ) ;
#221 = DIRECTION ( 'NONE',  ( 1.000000000000000000, 0.000000000000000000, 0.000000000000000000 ) ) ;
#222 = AXIS2_PLACEMENT_3D ( 'NONE', #56, #249, #129 ) ;
#223 =( LENGTH_UNIT ( ) NAMED_UNIT ( * ) SI_UNIT ( .MILLI., .METRE. ) );
#224 = DIRECTION ( 'NONE',  ( 1.000000000000000000, 0.000000000000000000, 0.000000000000000000 ) ) ;
#225 = FACE_OUTER_BOUND ( 'NONE', #17, .T. ) ;
#226 = CARTESIAN_POINT ( 'NONE',  ( 5.500000000000000000, 6.735557395310442023E-16, 5.199999999999982414 ) ) ;
#227 = AXIS2_PLACEMENT_3D ( 'NONE', #154, #267, #207 ) ;
#228 = ORIENTED_EDGE ( 'NONE', *, *, #195, .F. ) ;
#229 = ORIENTED_EDGE ( 'NONE', *, *, #62, .F. ) ;
#230 = AXIS2_PLACEMENT_3D ( 'NONE', #172, #265, #126 ) ;
#231 = DIRECTION ( 'NONE',  ( 1.000000000000000000, 0.000000000000000000, 0.000000000000000000 ) ) ;
#232 = EDGE_CURVE ( 'NONE', #69, #300, #208, .T. ) ;
#233 = DIRECTION ( 'NONE',  ( -0.000000000000000000, -0.000000000000000000, -1.000000000000000000 ) ) ;
#234 = APPROVAL_DATE_TIME ( #166, #99 ) ;
#235 = CC_DESIGN_PERSON_AND_ORGANIZATION_ASSIGNMENT ( #88, #44, ( #305 ) ) ;
#236 = DIRECTION ( 'NONE',  ( 1.000000000000000000, 0.000000000000000000, 0.000000000000000000 ) ) ;
#237 = TOROIDAL_SURFACE ( 'NONE', #79, 5.699999999999999289, 0.2000000000000000111 ) ;
#238 = PERSON_AND_ORGANIZATION ( #146, #273 ) ;
#239 = EDGE_LOOP ( 'NONE', ( #219, #141 ) ) ;
#240 = CALENDAR_DATE ( 2022, 7, 7 ) ;
#241 = DESIGN_CONTEXT ( 'detailed design', #192, 'design' ) ;
#242 = CARTESIAN_POINT ( 'NONE',  ( 5.500000000000000000, 6.735557395310442023E-16, 320.0000000000000000 ) ) ;
#243 = CARTESIAN_POINT ( 'NONE',  ( 0.000000000000000000, 0.000000000000000000, 320.0000000000000000 ) ) ;
#244 = DIRECTION ( 'NONE',  ( 1.000000000000000000, 0.000000000000000000, 0.000000000000000000 ) ) ;
#245 = EDGE_CURVE ( 'NONE', #300, #20, #250, .T. ) ;
#246 = CARTESIAN_POINT ( 'NONE',  ( 0.000000000000000000, 0.000000000000000000, 0.000000000000000000 ) ) ;
#247 = DIRECTION ( 'NONE',  ( -0.000000000000000000, -0.000000000000000000, -1.000000000000000000 ) ) ;
#248 = CARTESIAN_POINT ( 'NONE',  ( 0.000000000000000000, 0.000000000000000000, 5.199999999999982414 ) ) ;
#249 = DIRECTION ( 'NONE',  ( -0.000000000000000000, -0.000000000000000000, -1.000000000000000000 ) ) ;
#250 = CIRCLE ( 'NONE', #157, 5.500000000000000000 ) ;
#251 = AXIS2_PLACEMENT_3D ( 'NONE', #261, #27, #167 ) ;
#252 = ORIENTED_EDGE ( 'NONE', *, *, #57, .T. ) ;
#253 = ORIENTED_EDGE ( 'NONE', *, *, #110, .T. ) ;
#254 = CC_DESIGN_PERSON_AND_ORGANIZATION_ASSIGNMENT ( #218, #72, ( #184 ) ) ;
#255 = ORIENTED_EDGE ( 'NONE', *, *, #108, .F. ) ;
#256 = CIRCLE ( 'NONE', #151, 8.000000000000000000 ) ;
#257 = CIRCLE ( 'NONE', #37, 0.1999999999999996503 ) ;
#258 = APPROVAL_ROLE ( '' ) ;
#259 = FACE_OUTER_BOUND ( 'NONE', #277, .T. ) ;
#260 = CALENDAR_DATE ( 2022, 7, 7 ) ;
#261 = CARTESIAN_POINT ( 'NONE',  ( 0.000000000000000000, 0.000000000000000000, 5.000000000000000000 ) ) ;
#262 = COORDINATED_UNIVERSAL_TIME_OFFSET ( 1, 0, .AHEAD. ) ;
#263 = CARTESIAN_POINT ( 'NONE',  ( -5.699999999999999289, 6.980486755139912122E-16, 4.999999999999991118 ) ) ;
#264 = AXIS2_PLACEMENT_3D ( 'NONE', #123, #203, #294 ) ;
#265 = DIRECTION ( 'NONE',  ( -0.000000000000000000, -0.000000000000000000, -1.000000000000000000 ) ) ;
#266 = FACE_OUTER_BOUND ( 'NONE', #239, .T. ) ;
#267 = DIRECTION ( 'NONE',  ( -0.000000000000000000, -0.000000000000000000, -1.000000000000000000 ) ) ;
#268 = LOCAL_TIME ( 14, 24, 36.00000000000000000, #285 ) ;
#269 = CARTESIAN_POINT ( 'NONE',  ( -8.000000000000000000, 0.000000000000000000, 5.000000000000000000 ) ) ;
#270 = DIRECTION ( 'NONE',  ( 1.000000000000000000, 0.000000000000000000, 0.000000000000000000 ) ) ;
#271 = CYLINDRICAL_SURFACE ( 'NONE', #264, 5.500000000000000000 ) ;
#272 = CLOSED_SHELL ( 'NONE', ( #174, #91, #46, #23, #183, #301, #210, #215, #51 ) ) ;
#273 = ORGANIZATION ( 'NEURÈENÝ', 'NEURÈENÝ', '' ) ;
#274 = AXIS2_PLACEMENT_3D ( 'NONE', #173, #150, #244 ) ;
#275 = VERTEX_POINT ( 'NONE', #179 ) ;
#276 = APPROVAL ( #280, 'NEURÈENÝ' ) ;
#277 = EDGE_LOOP ( 'NONE', ( #133, #252, #253, #194 ) ) ;
#278 = AXIS2_PLACEMENT_3D ( 'NONE', #248, #9, #60 ) ;
#279 = ORIENTED_EDGE ( 'NONE', *, *, #197, .F. ) ;
#280 = APPROVAL_STATUS ( 'not_yet_approved' ) ;
#281 = ORIENTED_EDGE ( 'NONE', *, *, #57, .F. ) ;
#282 = VECTOR ( 'NONE', #247, 1000.000000000000000 ) ;
#283 = PERSON_AND_ORGANIZATION ( #146, #273 ) ;
#284 = ORIENTED_EDGE ( 'NONE', *, *, #130, .F. ) ;
#285 = COORDINATED_UNIVERSAL_TIME_OFFSET ( 1, 0, .AHEAD. ) ;
#286 = DIRECTION ( 'NONE',  ( 0.000000000000000000, 0.000000000000000000, 1.000000000000000000 ) ) ;
#287 = PERSON_AND_ORGANIZATION ( #146, #273 ) ;
#288 = CIRCLE ( 'NONE', #64, 5.500000000000000000 ) ;
#289 = APPROVAL_STATUS ( 'not_yet_approved' ) ;
#290 = CARTESIAN_POINT ( 'NONE',  ( 0.000000000000000000, 0.000000000000000000, 5.000000000000000000 ) ) ;
#291 = DIRECTION ( 'NONE',  ( 1.000000000000000000, 0.000000000000000000, -0.000000000000000000 ) ) ;
#292 = UNCERTAINTY_MEASURE_WITH_UNIT (LENGTH_MEASURE( 1.000000000000000082E-05 ), #223, 'distance_accuracy_value', 'NONE');
#293 = DIRECTION ( 'NONE',  ( 0.000000000000000000, 0.000000000000000000, 1.000000000000000000 ) ) ;
#294 = DIRECTION ( 'NONE',  ( -1.000000000000000000, 0.000000000000000000, 0.000000000000000000 ) ) ;
#295 = EDGE_CURVE ( 'NONE', #115, #217, #201, .T. ) ;
#296 = PLANE ( 'NONE',  #83 ) ;
#297 = VECTOR ( 'NONE', #82, 1000.000000000000000 ) ;
#298 = DIRECTION ( 'NONE',  ( 0.000000000000000000, 0.000000000000000000, 1.000000000000000000 ) ) ;
#299 = VECTOR ( 'NONE', #103, 1000.000000000000000 ) ;
#300 = VERTEX_POINT ( 'NONE', #226 ) ;
#301 = ADVANCED_FACE ( 'NONE', ( #266 ), #176, .F. ) ;
#302 = PRODUCT_DEFINITION_FORMATION_WITH_SPECIFIED_SOURCE ( 'LIBOVOLNÝ', '', #305, .NOT_KNOWN. ) ;
#303 = ORIENTED_EDGE ( 'NONE', *, *, #158, .F. ) ;
#304 = CARTESIAN_POINT ( 'NONE',  ( 0.000000000000000000, 0.000000000000000000, 5.000000000000000000 ) ) ;
#305 = PRODUCT ( 'e27e', 'e27e', '', ( #101 ) ) ;
#306 = PERSON_AND_ORGANIZATION ( #146, #273 ) ;
#307 = ORIENTED_EDGE ( 'NONE', *, *, #18, .T. ) ;
ENDSEC;
END-ISO-10303-21;
