ISO-10303-21;
HEADER;
FILE_DESCRIPTION (( 'STEP AP203' ),
    '1' );
FILE_NAME ('2aa8.STEP',
    '2022-07-07T12:52:17',
    ( '' ),
    ( '' ),
    'SwSTEP 2.0',
    'SolidWorks 2019',
    '' );
FILE_SCHEMA (( 'CONFIG_CONTROL_DESIGN' ));
ENDSEC;

DATA;
#1 = ORIENTED_EDGE ( 'NONE', *, *, #284, .F. ) ;
#2 = CARTESIAN_POINT ( 'NONE',  ( 1.950000000000000400, 0.000000000000000000, 3.000000000000004441 ) ) ;
#3 = CC_DESIGN_SECURITY_CLASSIFICATION ( #38, ( #276 ) ) ;
#4 = CARTESIAN_POINT ( 'NONE',  ( 0.000000000000000000, 0.000000000000000000, 3.200000000000008171 ) ) ;
#5 = DIRECTION ( 'NONE',  ( 0.000000000000000000, 0.000000000000000000, 1.000000000000000000 ) ) ;
#6 = DATE_AND_TIME ( #102, #301 ) ;
#7 = DATE_AND_TIME ( #240, #285 ) ;
#8 = MANIFOLD_SOLID_BREP ( 'Zaoblit1', #199 ) ;
#9 = APPROVAL_DATE_TIME ( #6, #77 ) ;
#10 = CIRCLE ( 'NONE', #62, 1.750000000000000222 ) ;
#11 = APPROVAL_STATUS ( 'not_yet_approved' ) ;
#12 = PLANE ( 'NONE',  #238 ) ;
#13 = ORIENTED_EDGE ( 'NONE', *, *, #88, .F. ) ;
#14 = DIRECTION ( 'NONE',  ( 0.000000000000000000, 0.000000000000000000, 1.000000000000000000 ) ) ;
#15 = ORIENTED_EDGE ( 'NONE', *, *, #190, .F. ) ;
#16 = FACE_OUTER_BOUND ( 'NONE', #251, .T. ) ;
#17 = ORIENTED_EDGE ( 'NONE', *, *, #299, .T. ) ;
#18 = DIRECTION ( 'NONE',  ( 0.000000000000000000, 0.000000000000000000, 1.000000000000000000 ) ) ;
#19 = EDGE_LOOP ( 'NONE', ( #272, #185 ) ) ;
#20 = EDGE_CURVE ( 'NONE', #184, #207, #237, .T. ) ;
#21 = CIRCLE ( 'NONE', #147, 1.750000000000000222 ) ;
#22 = DIRECTION ( 'NONE',  ( 0.000000000000000000, 0.000000000000000000, 1.000000000000000000 ) ) ;
#23 = DIRECTION ( 'NONE',  ( 0.000000000000000000, 0.000000000000000000, 1.000000000000000000 ) ) ;
#24 = CC_DESIGN_PERSON_AND_ORGANIZATION_ASSIGNMENT ( #195, #290, ( #132 ) ) ;
#25 = DIRECTION ( 'NONE',  ( 1.000000000000000000, 0.000000000000000000, 0.000000000000000000 ) ) ;
#26 = EDGE_LOOP ( 'NONE', ( #66, #139, #209, #96 ) ) ;
#27 = AXIS2_PLACEMENT_3D ( 'NONE', #143, #56, #145 ) ;
#28 = FACE_OUTER_BOUND ( 'NONE', #224, .T. ) ;
#29 = PLANE ( 'NONE',  #27 ) ;
#30 = COORDINATED_UNIVERSAL_TIME_OFFSET ( 1, 0, .AHEAD. ) ;
#31 = DIRECTION ( 'NONE',  ( -0.000000000000000000, -0.000000000000000000, -1.000000000000000000 ) ) ;
#32 = COORDINATED_UNIVERSAL_TIME_OFFSET ( 1, 0, .AHEAD. ) ;
#33 = CIRCLE ( 'NONE', #250, 3.500000000000000444 ) ;
#34 = DIRECTION ( 'NONE',  ( 0.000000000000000000, 0.000000000000000000, 1.000000000000000000 ) ) ;
#35 = SHAPE_DEFINITION_REPRESENTATION ( #281, #172 ) ;
#36 = EDGE_CURVE ( 'NONE', #68, #51, #65, .T. ) ;
#37 = CARTESIAN_POINT ( 'NONE',  ( 0.000000000000000000, 0.000000000000000000, 253.0000000000000000 ) ) ;
#38 = SECURITY_CLASSIFICATION ( '', '', #264 ) ;
#39 = ADVANCED_FACE ( 'NONE', ( #163 ), #142, .F. ) ;
#40 = VERTEX_POINT ( 'NONE', #94 ) ;
#41 = EDGE_CURVE ( 'NONE', #40, #249, #247, .T. ) ;
#42 = AXIS2_PLACEMENT_3D ( 'NONE', #82, #168, #120 ) ;
#43 = CARTESIAN_POINT ( 'NONE',  ( -3.500000000000000444, 0.000000000000000000, 0.000000000000000000 ) ) ;
#44 = PRODUCT ( '2aa8', '2aa8', '', ( #291 ) ) ;
#45 =( GEOMETRIC_REPRESENTATION_CONTEXT ( 3 ) GLOBAL_UNCERTAINTY_ASSIGNED_CONTEXT ( ( #274 ) ) GLOBAL_UNIT_ASSIGNED_CONTEXT ( ( #194, #241, #231 ) ) REPRESENTATION_CONTEXT ( 'NONE', 'WORKASPACE' ) );
#46 = ORIENTED_EDGE ( 'NONE', *, *, #127, .T. ) ;
#47 = DIRECTION ( 'NONE',  ( -1.000000000000000000, 0.000000000000000000, 0.000000000000000000 ) ) ;
#48 = ADVANCED_FACE ( 'NONE', ( #28 ), #118, .T. ) ;
#49 = ORIENTED_EDGE ( 'NONE', *, *, #159, .F. ) ;
#50 = APPROVAL ( #235, 'NEURÈENÝ' ) ;
#51 = VERTEX_POINT ( 'NONE', #43 ) ;
#52 = CIRCLE ( 'NONE', #64, 3.500000000000000444 ) ;
#53 = FACE_OUTER_BOUND ( 'NONE', #26, .T. ) ;
#54 = PERSON_AND_ORGANIZATION_ROLE ( 'design_owner' ) ;
#55 = DIRECTION ( 'NONE',  ( -0.000000000000000000, -0.000000000000000000, -1.000000000000000000 ) ) ;
#56 = DIRECTION ( 'NONE',  ( 0.000000000000000000, 0.000000000000000000, 1.000000000000000000 ) ) ;
#57 = APPROVAL_ROLE ( '' ) ;
#58 = CIRCLE ( 'NONE', #179, 3.500000000000000444 ) ;
#59 = CYLINDRICAL_SURFACE ( 'NONE', #232, 3.500000000000000444 ) ;
#60 = PERSON_AND_ORGANIZATION ( #121, #92 ) ;
#61 = CARTESIAN_POINT ( 'NONE',  ( 1.750000000000000222, 2.143131898507868544E-16, 3.200000000000008171 ) ) ;
#62 = AXIS2_PLACEMENT_3D ( 'NONE', #254, #22, #304 ) ;
#63 = FACE_BOUND ( 'NONE', #70, .T. ) ;
#64 = AXIS2_PLACEMENT_3D ( 'NONE', #222, #18, #300 ) ;
#65 = LINE ( 'NONE', #303, #85 ) ;
#66 = ORIENTED_EDGE ( 'NONE', *, *, #108, .F. ) ;
#67 = CIRCLE ( 'NONE', #215, 0.2000000000000000944 ) ;
#68 = VERTEX_POINT ( 'NONE', #71 ) ;
#69 = FACE_OUTER_BOUND ( 'NONE', #86, .T. ) ;
#70 = EDGE_LOOP ( 'NONE', ( #228, #157 ) ) ;
#71 = CARTESIAN_POINT ( 'NONE',  ( -3.500000000000000444, 0.000000000000000000, 3.000000000000000000 ) ) ;
#72 = DIRECTION ( 'NONE',  ( 1.000000000000000000, 0.000000000000000000, 0.000000000000000000 ) ) ;
#73 = FACE_OUTER_BOUND ( 'NONE', #162, .T. ) ;
#74 = DIRECTION ( 'NONE',  ( 0.000000000000000000, -1.000000000000000000, 0.000000000000000000 ) ) ;
#75 = PERSON_AND_ORGANIZATION_ROLE ( 'classification_officer' ) ;
#76 = DIRECTION ( 'NONE',  ( 1.000000000000000000, 0.000000000000000000, -0.000000000000000000 ) ) ;
#77 = APPROVAL ( #81, 'NEURÈENÝ' ) ;
#78 = DIRECTION ( 'NONE',  ( 1.000000000000000000, 0.000000000000000000, 0.000000000000000000 ) ) ;
#79 = CALENDAR_DATE ( 2022, 7, 7 ) ;
#80 = AXIS2_PLACEMENT_3D ( 'NONE', #186, #117, #277 ) ;
#81 = APPROVAL_STATUS ( 'not_yet_approved' ) ;
#82 = CARTESIAN_POINT ( 'NONE',  ( 0.000000000000000000, 0.000000000000000000, 253.0000000000000000 ) ) ;
#83 = ORIENTED_EDGE ( 'NONE', *, *, #36, .F. ) ;
#84 = CARTESIAN_POINT ( 'NONE',  ( 0.000000000000000000, 0.000000000000000000, 3.000000000000000000 ) ) ;
#85 = VECTOR ( 'NONE', #211, 1000.000000000000000 ) ;
#86 = EDGE_LOOP ( 'NONE', ( #15, #90, #243, #83 ) ) ;
#87 = EDGE_CURVE ( 'NONE', #40, #280, #10, .T. ) ;
#88 = EDGE_CURVE ( 'NONE', #51, #182, #58, .T. ) ;
#89 = LOCAL_TIME ( 14, 52, 17.00000000000000000, #148 ) ;
#90 = ORIENTED_EDGE ( 'NONE', *, *, #108, .T. ) ;
#91 = ORIENTED_EDGE ( 'NONE', *, *, #41, .F. ) ;
#92 = ORGANIZATION ( 'NEURÈENÝ', 'NEURÈENÝ', '' ) ;
#93 = CARTESIAN_POINT ( 'NONE',  ( 3.500000000000000444, 4.286263797015737088E-16, 3.000000000000000000 ) ) ;
#94 = CARTESIAN_POINT ( 'NONE',  ( 1.750000000000000222, 2.143131898507868544E-16, 253.0000000000000000 ) ) ;
#95 = DIRECTION ( 'NONE',  ( 0.000000000000000000, 0.000000000000000000, 1.000000000000000000 ) ) ;
#96 = ORIENTED_EDGE ( 'NONE', *, *, #88, .T. ) ;
#97 = CARTESIAN_POINT ( 'NONE',  ( 0.000000000000000000, 0.000000000000000000, 253.0000000000000000 ) ) ;
#98 = COORDINATED_UNIVERSAL_TIME_OFFSET ( 1, 0, .AHEAD. ) ;
#99 = AXIS2_PLACEMENT_3D ( 'NONE', #4, #126, #100 ) ;
#100 = DIRECTION ( 'NONE',  ( 1.000000000000000000, 0.000000000000000000, 0.000000000000000000 ) ) ;
#101 = CARTESIAN_POINT ( 'NONE',  ( -1.750000000000000222, 0.000000000000000000, 253.0000000000000000 ) ) ;
#102 = CALENDAR_DATE ( 2022, 7, 7 ) ;
#103 = CC_DESIGN_PERSON_AND_ORGANIZATION_ASSIGNMENT ( #252, #54, ( #44 ) ) ;
#104 = APPROVAL_DATE_TIME ( #7, #160 ) ;
#105 = AXIS2_PLACEMENT_3D ( 'NONE', #193, #95, #72 ) ;
#106 = CC_DESIGN_PERSON_AND_ORGANIZATION_ASSIGNMENT ( #146, #75, ( #38 ) ) ;
#107 = VERTEX_POINT ( 'NONE', #93 ) ;
#108 = EDGE_CURVE ( 'NONE', #107, #182, #140, .T. ) ;
#109 = AXIS2_PLACEMENT_3D ( 'NONE', #191, #55, #236 ) ;
#110 = CC_DESIGN_APPROVAL ( #77, ( #132 ) ) ;
#111 = DIRECTION ( 'NONE',  ( 0.000000000000000000, 0.000000000000000000, 1.000000000000000000 ) ) ;
#112 = CARTESIAN_POINT ( 'NONE',  ( 0.000000000000000000, 0.000000000000000000, 3.000000000000000000 ) ) ;
#113 = CC_DESIGN_DATE_AND_TIME_ASSIGNMENT ( #167, #267, ( #38 ) ) ;
#114 = DIRECTION ( 'NONE',  ( 1.000000000000000000, 0.000000000000000000, 0.000000000000000000 ) ) ;
#115 = APPLICATION_CONTEXT ( 'configuration controlled 3d designs of mechanical parts and assemblies' ) ;
#116 = VECTOR ( 'NONE', #31, 1000.000000000000000 ) ;
#117 = DIRECTION ( 'NONE',  ( -0.000000000000000000, -0.000000000000000000, -1.000000000000000000 ) ) ;
#118 = CYLINDRICAL_SURFACE ( 'NONE', #293, 1.750000000000000222 ) ;
#119 = PERSON_AND_ORGANIZATION ( #121, #92 ) ;
#120 = DIRECTION ( 'NONE',  ( -1.000000000000000000, 0.000000000000000000, 0.000000000000000000 ) ) ;
#121 = PERSON ( 'NEURÈENÝ', 'NEURÈENÝ', 'NEURÈENÝ', ('NEURÈENÝ'), ('NEURÈENÝ'), ('NEURÈENÝ') ) ;
#122 = FACE_OUTER_BOUND ( 'NONE', #269, .T. ) ;
#123 = VECTOR ( 'NONE', #181, 1000.000000000000000 ) ;
#124 = DIRECTION ( 'NONE',  ( -1.000000000000000000, 0.000000000000000000, 0.000000000000000000 ) ) ;
#125 = APPROVAL_DATE_TIME ( #218, #50 ) ;
#126 = DIRECTION ( 'NONE',  ( 0.000000000000000000, 0.000000000000000000, 1.000000000000000000 ) ) ;
#127 = EDGE_CURVE ( 'NONE', #68, #107, #33, .T. ) ;
#128 = DATE_AND_TIME ( #79, #89 ) ;
#129 = CC_DESIGN_APPROVAL ( #160, ( #276 ) ) ;
#130 = ORIENTED_EDGE ( 'NONE', *, *, #41, .T. ) ;
#131 = PLANE ( 'NONE',  #154 ) ;
#132 = PRODUCT_DEFINITION ( 'NEZNÁMÝ', '', #276, #180 ) ;
#133 = EDGE_LOOP ( 'NONE', ( #141, #130, #156, #136 ) ) ;
#134 = CARTESIAN_POINT ( 'NONE',  ( -1.750000000000000222, 0.000000000000000000, 3.200000000000008171 ) ) ;
#135 = CIRCLE ( 'NONE', #200, 0.2000000000000000944 ) ;
#136 = ORIENTED_EDGE ( 'NONE', *, *, #151, .F. ) ;
#137 = ORIENTED_EDGE ( 'NONE', *, *, #260, .F. ) ;
#138 = CC_DESIGN_APPROVAL ( #50, ( #38 ) ) ;
#139 = ORIENTED_EDGE ( 'NONE', *, *, #127, .F. ) ;
#140 = LINE ( 'NONE', #206, #123 ) ;
#141 = ORIENTED_EDGE ( 'NONE', *, *, #87, .F. ) ;
#142 = TOROIDAL_SURFACE ( 'NONE', #279, 1.950000000000000400, 0.2000000000000000111 ) ;
#143 = CARTESIAN_POINT ( 'NONE',  ( 0.000000000000000000, 0.000000000000000000, 0.000000000000000000 ) ) ;
#144 = DIRECTION ( 'NONE',  ( 1.224646799147353207E-16, 1.000000000000000000, -0.000000000000000000 ) ) ;
#145 = DIRECTION ( 'NONE',  ( 1.000000000000000000, 0.000000000000000000, -0.000000000000000000 ) ) ;
#146 = PERSON_AND_ORGANIZATION ( #121, #92 ) ;
#147 = AXIS2_PLACEMENT_3D ( 'NONE', #213, #5, #78 ) ;
#148 = COORDINATED_UNIVERSAL_TIME_OFFSET ( 1, 0, .AHEAD. ) ;
#149 = DIRECTION ( 'NONE',  ( -0.000000000000000000, -0.000000000000000000, -1.000000000000000000 ) ) ;
#150 = LOCAL_TIME ( 14, 52, 17.00000000000000000, #30 ) ;
#151 = EDGE_CURVE ( 'NONE', #280, #275, #256, .T. ) ;
#152 = ORIENTED_EDGE ( 'NONE', *, *, #159, .T. ) ;
#153 = APPLICATION_PROTOCOL_DEFINITION ( 'international standard', 'config_control_design', 1994, #307 ) ;
#154 = AXIS2_PLACEMENT_3D ( 'NONE', #84, #14, #258 ) ;
#155 = ORIENTED_EDGE ( 'NONE', *, *, #20, .F. ) ;
#156 = ORIENTED_EDGE ( 'NONE', *, *, #177, .T. ) ;
#157 = ORIENTED_EDGE ( 'NONE', *, *, #20, .T. ) ;
#158 = AXIS2_PLACEMENT_3D ( 'NONE', #97, #265, #245 ) ;
#159 = EDGE_CURVE ( 'NONE', #275, #184, #135, .T. ) ;
#160 = APPROVAL ( #11, 'NEURÈENÝ' ) ;
#161 = CARTESIAN_POINT ( 'NONE',  ( 0.000000000000000000, 0.000000000000000000, 253.0000000000000000 ) ) ;
#162 = EDGE_LOOP ( 'NONE', ( #49, #246, #302, #155 ) ) ;
#163 = FACE_OUTER_BOUND ( 'NONE', #296, .T. ) ;
#164 = CIRCLE ( 'NONE', #305, 3.500000000000000444 ) ;
#165 = CYLINDRICAL_SURFACE ( 'NONE', #109, 3.500000000000000444 ) ;
#166 = CARTESIAN_POINT ( 'NONE',  ( -1.950000000000000400, 2.388061258337339136E-16, 3.000000000000004441 ) ) ;
#167 = DATE_AND_TIME ( #294, #204 ) ;
#168 = DIRECTION ( 'NONE',  ( -0.000000000000000000, -0.000000000000000000, -1.000000000000000000 ) ) ;
#169 = CC_DESIGN_PERSON_AND_ORGANIZATION_ASSIGNMENT ( #287, #292, ( #276 ) ) ;
#170 = CARTESIAN_POINT ( 'NONE',  ( 3.500000000000000444, 4.286263797015737088E-16, 0.000000000000000000 ) ) ;
#171 = APPROVAL_ROLE ( '' ) ;
#172 = ADVANCED_BREP_SHAPE_REPRESENTATION ( '2aa8', ( #8, #105 ), #45 ) ;
#173 = CIRCLE ( 'NONE', #158, 1.750000000000000222 ) ;
#174 = ADVANCED_FACE ( 'NONE', ( #53 ), #165, .T. ) ;
#175 = PERSON_AND_ORGANIZATION ( #121, #92 ) ;
#176 = CARTESIAN_POINT ( 'NONE',  ( 0.000000000000000000, 0.000000000000000000, 3.000000000000000000 ) ) ;
#177 = EDGE_CURVE ( 'NONE', #249, #275, #21, .T. ) ;
#178 = ORIENTED_EDGE ( 'NONE', *, *, #299, .F. ) ;
#179 = AXIS2_PLACEMENT_3D ( 'NONE', #212, #23, #25 ) ;
#180 = DESIGN_CONTEXT ( 'detailed design', #115, 'design' ) ;
#181 = DIRECTION ( 'NONE',  ( -0.000000000000000000, -0.000000000000000000, -1.000000000000000000 ) ) ;
#182 = VERTEX_POINT ( 'NONE', #170 ) ;
#183 = CIRCLE ( 'NONE', #196, 1.950000000000000400 ) ;
#184 = VERTEX_POINT ( 'NONE', #166 ) ;
#185 = ORIENTED_EDGE ( 'NONE', *, *, #87, .T. ) ;
#186 = CARTESIAN_POINT ( 'NONE',  ( 0.000000000000000000, 0.000000000000000000, 3.000000000000000000 ) ) ;
#187 = CIRCLE ( 'NONE', #99, 1.750000000000000222 ) ;
#188 = CARTESIAN_POINT ( 'NONE',  ( 0.000000000000000000, 0.000000000000000000, 3.200000000000008171 ) ) ;
#189 = APPROVAL_ROLE ( '' ) ;
#190 = EDGE_CURVE ( 'NONE', #107, #68, #164, .T. ) ;
#191 = CARTESIAN_POINT ( 'NONE',  ( 0.000000000000000000, 0.000000000000000000, 3.000000000000000000 ) ) ;
#192 = COORDINATED_UNIVERSAL_TIME_OFFSET ( 1, 0, .AHEAD. ) ;
#193 = CARTESIAN_POINT ( 'NONE',  ( 0.000000000000000000, 0.000000000000000000, 0.000000000000000000 ) ) ;
#194 =( LENGTH_UNIT ( ) NAMED_UNIT ( * ) SI_UNIT ( .MILLI., .METRE. ) );
#195 = PERSON_AND_ORGANIZATION ( #121, #92 ) ;
#196 = AXIS2_PLACEMENT_3D ( 'NONE', #176, #270, #201 ) ;
#197 = ADVANCED_FACE ( 'NONE', ( #122 ), #29, .F. ) ;
#198 = ORIENTED_EDGE ( 'NONE', *, *, #190, .T. ) ;
#199 = CLOSED_SHELL ( 'NONE', ( #39, #248, #295, #174, #259, #197, #48, #225, #220 ) ) ;
#200 = AXIS2_PLACEMENT_3D ( 'NONE', #216, #144, #289 ) ;
#201 = DIRECTION ( 'NONE',  ( 1.000000000000000000, 0.000000000000000000, 0.000000000000000000 ) ) ;
#202 = CARTESIAN_POINT ( 'NONE',  ( -1.750000000000000222, 0.000000000000000000, 253.0000000000000000 ) ) ;
#203 = CC_DESIGN_PERSON_AND_ORGANIZATION_ASSIGNMENT ( #175, #214, ( #276 ) ) ;
#204 = LOCAL_TIME ( 14, 52, 17.00000000000000000, #32 ) ;
#205 = PRODUCT_RELATED_PRODUCT_CATEGORY ( 'detail', '', ( #44 ) ) ;
#206 = CARTESIAN_POINT ( 'NONE',  ( 3.500000000000000444, 4.286263797015737088E-16, 3.000000000000000000 ) ) ;
#207 = VERTEX_POINT ( 'NONE', #2 ) ;
#208 = EDGE_CURVE ( 'NONE', #249, #207, #67, .T. ) ;
#209 = ORIENTED_EDGE ( 'NONE', *, *, #36, .T. ) ;
#210 = AXIS2_PLACEMENT_3D ( 'NONE', #188, #286, #257 ) ;
#211 = DIRECTION ( 'NONE',  ( -0.000000000000000000, -0.000000000000000000, -1.000000000000000000 ) ) ;
#212 = CARTESIAN_POINT ( 'NONE',  ( 0.000000000000000000, 0.000000000000000000, 0.000000000000000000 ) ) ;
#213 = CARTESIAN_POINT ( 'NONE',  ( 0.000000000000000000, 0.000000000000000000, 3.200000000000008171 ) ) ;
#214 = PERSON_AND_ORGANIZATION_ROLE ( 'creator' ) ;
#215 = AXIS2_PLACEMENT_3D ( 'NONE', #239, #74, #283 ) ;
#216 = CARTESIAN_POINT ( 'NONE',  ( -1.950000000000000400, 2.388061258337339136E-16, 3.200000000000008171 ) ) ;
#217 = CARTESIAN_POINT ( 'NONE',  ( 0.000000000000000000, 0.000000000000000000, 3.000000000000000000 ) ) ;
#218 = DATE_AND_TIME ( #262, #150 ) ;
#219 = PERSON_AND_ORGANIZATION ( #121, #92 ) ;
#220 = ADVANCED_FACE ( 'NONE', ( #73 ), #227, .F. ) ;
#221 = ORIENTED_EDGE ( 'NONE', *, *, #151, .T. ) ;
#222 = CARTESIAN_POINT ( 'NONE',  ( 0.000000000000000000, 0.000000000000000000, 0.000000000000000000 ) ) ;
#223 = EDGE_CURVE ( 'NONE', #280, #40, #173, .T. ) ;
#224 = EDGE_LOOP ( 'NONE', ( #91, #230, #221, #17 ) ) ;
#225 = ADVANCED_FACE ( 'NONE', ( #242 ), #12, .T. ) ;
#226 = DIRECTION ( 'NONE',  ( -0.000000000000000000, -0.000000000000000000, -1.000000000000000000 ) ) ;
#227 = TOROIDAL_SURFACE ( 'NONE', #210, 1.950000000000000400, 0.2000000000000000111 ) ;
#228 = ORIENTED_EDGE ( 'NONE', *, *, #260, .T. ) ;
#229 = DIRECTION ( 'NONE',  ( 0.000000000000000000, 0.000000000000000000, 1.000000000000000000 ) ) ;
#230 = ORIENTED_EDGE ( 'NONE', *, *, #223, .F. ) ;
#231 =( NAMED_UNIT ( * ) SI_UNIT ( $, .STERADIAN. ) SOLID_ANGLE_UNIT ( ) );
#232 = AXIS2_PLACEMENT_3D ( 'NONE', #217, #149, #124 ) ;
#233 = DIRECTION ( 'NONE',  ( 1.000000000000000000, 0.000000000000000000, 0.000000000000000000 ) ) ;
#234 = CARTESIAN_POINT ( 'NONE',  ( 0.000000000000000000, 0.000000000000000000, 3.000000000000000000 ) ) ;
#235 = APPROVAL_STATUS ( 'not_yet_approved' ) ;
#236 = DIRECTION ( 'NONE',  ( -1.000000000000000000, 0.000000000000000000, 0.000000000000000000 ) ) ;
#237 = CIRCLE ( 'NONE', #80, 1.950000000000000400 ) ;
#238 = AXIS2_PLACEMENT_3D ( 'NONE', #37, #273, #76 ) ;
#239 = CARTESIAN_POINT ( 'NONE',  ( 1.950000000000000400, 0.000000000000000000, 3.200000000000008171 ) ) ;
#240 = CALENDAR_DATE ( 2022, 7, 7 ) ;
#241 =( NAMED_UNIT ( * ) PLANE_ANGLE_UNIT ( ) SI_UNIT ( $, .RADIAN. ) );
#242 = FACE_OUTER_BOUND ( 'NONE', #19, .T. ) ;
#243 = ORIENTED_EDGE ( 'NONE', *, *, #284, .T. ) ;
#244 = APPLICATION_PROTOCOL_DEFINITION ( 'international standard', 'config_control_design', 1994, #115 ) ;
#245 = DIRECTION ( 'NONE',  ( 1.000000000000000000, 0.000000000000000000, 0.000000000000000000 ) ) ;
#246 = ORIENTED_EDGE ( 'NONE', *, *, #177, .F. ) ;
#247 = LINE ( 'NONE', #278, #298 ) ;
#248 = ADVANCED_FACE ( 'NONE', ( #288 ), #297, .T. ) ;
#249 = VERTEX_POINT ( 'NONE', #61 ) ;
#250 = AXIS2_PLACEMENT_3D ( 'NONE', #112, #229, #114 ) ;
#251 = EDGE_LOOP ( 'NONE', ( #46, #198 ) ) ;
#252 = PERSON_AND_ORGANIZATION ( #121, #92 ) ;
#253 = ORIENTED_EDGE ( 'NONE', *, *, #208, .F. ) ;
#254 = CARTESIAN_POINT ( 'NONE',  ( 0.000000000000000000, 0.000000000000000000, 253.0000000000000000 ) ) ;
#255 = APPROVAL_PERSON_ORGANIZATION ( #219, #160, #57 ) ;
#256 = LINE ( 'NONE', #101, #116 ) ;
#257 = DIRECTION ( 'NONE',  ( 1.000000000000000000, 0.000000000000000000, 0.000000000000000000 ) ) ;
#258 = DIRECTION ( 'NONE',  ( 1.000000000000000000, 0.000000000000000000, -0.000000000000000000 ) ) ;
#259 = ADVANCED_FACE ( 'NONE', ( #63, #16 ), #131, .T. ) ;
#260 = EDGE_CURVE ( 'NONE', #207, #184, #183, .T. ) ;
#261 = DIRECTION ( 'NONE',  ( 1.000000000000000000, 0.000000000000000000, 0.000000000000000000 ) ) ;
#262 = CALENDAR_DATE ( 2022, 7, 7 ) ;
#263 = APPROVAL_PERSON_ORGANIZATION ( #119, #77, #189 ) ;
#264 = SECURITY_CLASSIFICATION_LEVEL ( 'unclassified' ) ;
#265 = DIRECTION ( 'NONE',  ( 0.000000000000000000, 0.000000000000000000, 1.000000000000000000 ) ) ;
#266 = DATE_TIME_ROLE ( 'creation_date' ) ;
#267 = DATE_TIME_ROLE ( 'classification_date' ) ;
#268 = APPROVAL_PERSON_ORGANIZATION ( #60, #50, #171 ) ;
#269 = EDGE_LOOP ( 'NONE', ( #13, #1 ) ) ;
#270 = DIRECTION ( 'NONE',  ( -0.000000000000000000, -0.000000000000000000, -1.000000000000000000 ) ) ;
#271 = CC_DESIGN_DATE_AND_TIME_ASSIGNMENT ( #128, #266, ( #132 ) ) ;
#272 = ORIENTED_EDGE ( 'NONE', *, *, #223, .T. ) ;
#273 = DIRECTION ( 'NONE',  ( 0.000000000000000000, 0.000000000000000000, 1.000000000000000000 ) ) ;
#274 = UNCERTAINTY_MEASURE_WITH_UNIT (LENGTH_MEASURE( 1.000000000000000082E-05 ), #194, 'distance_accuracy_value', 'NONE');
#275 = VERTEX_POINT ( 'NONE', #134 ) ;
#276 = PRODUCT_DEFINITION_FORMATION_WITH_SPECIFIED_SOURCE ( 'LIBOVOLNÝ', '', #44, .NOT_KNOWN. ) ;
#277 = DIRECTION ( 'NONE',  ( 1.000000000000000000, 0.000000000000000000, 0.000000000000000000 ) ) ;
#278 = CARTESIAN_POINT ( 'NONE',  ( 1.750000000000000222, 2.143131898507868544E-16, 253.0000000000000000 ) ) ;
#279 = AXIS2_PLACEMENT_3D ( 'NONE', #306, #111, #233 ) ;
#280 = VERTEX_POINT ( 'NONE', #202 ) ;
#281 = PRODUCT_DEFINITION_SHAPE ( 'NONE', 'NONE',  #132 ) ;
#282 = DIRECTION ( 'NONE',  ( -0.000000000000000000, -0.000000000000000000, -1.000000000000000000 ) ) ;
#283 = DIRECTION ( 'NONE',  ( 0.000000000000000000, 0.000000000000000000, -1.000000000000000000 ) ) ;
#284 = EDGE_CURVE ( 'NONE', #182, #51, #52, .T. ) ;
#285 = LOCAL_TIME ( 14, 52, 17.00000000000000000, #98 ) ;
#286 = DIRECTION ( 'NONE',  ( 0.000000000000000000, 0.000000000000000000, 1.000000000000000000 ) ) ;
#287 = PERSON_AND_ORGANIZATION ( #121, #92 ) ;
#288 = FACE_OUTER_BOUND ( 'NONE', #133, .T. ) ;
#289 = DIRECTION ( 'NONE',  ( -1.000000000000000000, 1.224646799147353207E-16, 0.000000000000000000 ) ) ;
#290 = PERSON_AND_ORGANIZATION_ROLE ( 'creator' ) ;
#291 = MECHANICAL_CONTEXT ( 'NONE', #307, 'mechanical' ) ;
#292 = PERSON_AND_ORGANIZATION_ROLE ( 'design_supplier' ) ;
#293 = AXIS2_PLACEMENT_3D ( 'NONE', #161, #226, #47 ) ;
#294 = CALENDAR_DATE ( 2022, 7, 7 ) ;
#295 = ADVANCED_FACE ( 'NONE', ( #69 ), #59, .T. ) ;
#296 = EDGE_LOOP ( 'NONE', ( #178, #152, #137, #253 ) ) ;
#297 = CYLINDRICAL_SURFACE ( 'NONE', #42, 1.750000000000000222 ) ;
#298 = VECTOR ( 'NONE', #282, 1000.000000000000000 ) ;
#299 = EDGE_CURVE ( 'NONE', #275, #249, #187, .T. ) ;
#300 = DIRECTION ( 'NONE',  ( 1.000000000000000000, 0.000000000000000000, 0.000000000000000000 ) ) ;
#301 = LOCAL_TIME ( 14, 52, 17.00000000000000000, #192 ) ;
#302 = ORIENTED_EDGE ( 'NONE', *, *, #208, .T. ) ;
#303 = CARTESIAN_POINT ( 'NONE',  ( -3.500000000000000444, 0.000000000000000000, 3.000000000000000000 ) ) ;
#304 = DIRECTION ( 'NONE',  ( 1.000000000000000000, 0.000000000000000000, 0.000000000000000000 ) ) ;
#305 = AXIS2_PLACEMENT_3D ( 'NONE', #234, #34, #261 ) ;
#306 = CARTESIAN_POINT ( 'NONE',  ( 0.000000000000000000, 0.000000000000000000, 3.200000000000008171 ) ) ;
#307 = APPLICATION_CONTEXT ( 'configuration controlled 3d designs of mechanical parts and assemblies' ) ;
ENDSEC;
END-ISO-10303-21;
