ISO-10303-21;
HEADER;
FILE_DESCRIPTION (( 'STEP AP203' ),
    '1' );
FILE_NAME ('08de.STEP',
    '2023-02-12T12:11:15',
    ( '' ),
    ( '' ),
    'SwSTEP 2.0',
    'SolidWorks 2019',
    '' );
FILE_SCHEMA (( 'CONFIG_CONTROL_DESIGN' ));
ENDSEC;

DATA;
#1 = APPROVAL_DATE_TIME ( #133, #120 ) ;
#2 = CIRCLE ( 'NONE', #169, 1.750000000000000000 ) ;
#3 = AXIS2_PLACEMENT_3D ( 'NONE', #73, #32, #77 ) ;
#4 = PRODUCT_RELATED_PRODUCT_CATEGORY ( 'detail', '', ( #71 ) ) ;
#5 = APPROVAL_STATUS ( 'not_yet_approved' ) ;
#6 = EDGE_CURVE ( 'NONE', #157, #9, #143, .T. ) ;
#7 = ORIENTED_EDGE ( 'NONE', *, *, #137, .F. ) ;
#8 = ORIENTED_EDGE ( 'NONE', *, *, #6, .T. ) ;
#9 = VERTEX_POINT ( 'NONE', #105 ) ;
#10 = DIRECTION ( 'NONE',  ( 1.000000000000000000, 0.000000000000000000, 0.000000000000000000 ) ) ;
#11 = CARTESIAN_POINT ( 'NONE',  ( -1.750000000000000000, 0.000000000000000000, 100.0000000000000000 ) ) ;
#12 = FACE_OUTER_BOUND ( 'NONE', #48, .T. ) ;
#13 = APPLICATION_CONTEXT ( 'configuration controlled 3d designs of mechanical parts and assemblies' ) ;
#14 = APPROVAL_PERSON_ORGANIZATION ( #45, #120, #237 ) ;
#15 = ADVANCED_FACE ( 'NONE', ( #159 ), #244, .T. ) ;
#16 = DIRECTION ( 'NONE',  ( -0.000000000000000000, -0.000000000000000000, -1.000000000000000000 ) ) ;
#17 = CC_DESIGN_PERSON_AND_ORGANIZATION_ASSIGNMENT ( #59, #112, ( #71 ) ) ;
#18 = PERSON_AND_ORGANIZATION ( #107, #132 ) ;
#19 = DIRECTION ( 'NONE',  ( 1.000000000000000000, 0.000000000000000000, 0.000000000000000000 ) ) ;
#20 = VERTEX_POINT ( 'NONE', #11 ) ;
#21 = CARTESIAN_POINT ( 'NONE',  ( 0.000000000000000000, 0.000000000000000000, 0.000000000000000000 ) ) ;
#22 = APPROVAL_STATUS ( 'not_yet_approved' ) ;
#23 = AXIS2_PLACEMENT_3D ( 'NONE', #96, #167, #187 ) ;
#24 = DATE_AND_TIME ( #192, #245 ) ;
#25 = ORIENTED_EDGE ( 'NONE', *, *, #27, .T. ) ;
#26 = MANIFOLD_SOLID_BREP ( 'Pøidat vysunutím3', #183 ) ;
#27 = EDGE_CURVE ( 'NONE', #135, #87, #47, .T. ) ;
#28 = VERTEX_POINT ( 'NONE', #138 ) ;
#29 = ORIENTED_EDGE ( 'NONE', *, *, #156, .T. ) ;
#30 = FACE_OUTER_BOUND ( 'NONE', #46, .T. ) ;
#31 = EDGE_LOOP ( 'NONE', ( #174, #44 ) ) ;
#32 = DIRECTION ( 'NONE',  ( -0.000000000000000000, -0.000000000000000000, -1.000000000000000000 ) ) ;
#33 = EDGE_CURVE ( 'NONE', #126, #20, #148, .T. ) ;
#34 = DIRECTION ( 'NONE',  ( 1.000000000000000000, 0.000000000000000000, -0.000000000000000000 ) ) ;
#35 = AXIS2_PLACEMENT_3D ( 'NONE', #158, #72, #55 ) ;
#36 = CIRCLE ( 'NONE', #118, 1.750000000000000000 ) ;
#37 = AXIS2_PLACEMENT_3D ( 'NONE', #52, #198, #182 ) ;
#38 = SECURITY_CLASSIFICATION ( '', '', #253 ) ;
#39 = APPROVAL ( #229, 'NEURÈENÝ' ) ;
#40 = COORDINATED_UNIVERSAL_TIME_OFFSET ( 1, 0, .AHEAD. ) ;
#41 =( GEOMETRIC_REPRESENTATION_CONTEXT ( 3 ) GLOBAL_UNCERTAINTY_ASSIGNED_CONTEXT ( ( #193 ) ) GLOBAL_UNIT_ASSIGNED_CONTEXT ( ( #189, #208, #109 ) ) REPRESENTATION_CONTEXT ( 'NONE', 'WORKASPACE' ) );
#42 = PERSON_AND_ORGANIZATION ( #107, #132 ) ;
#43 = PERSON_AND_ORGANIZATION ( #107, #132 ) ;
#44 = ORIENTED_EDGE ( 'NONE', *, *, #74, .F. ) ;
#45 = PERSON_AND_ORGANIZATION ( #107, #132 ) ;
#46 = EDGE_LOOP ( 'NONE', ( #164, #240, #25, #199 ) ) ;
#47 = LINE ( 'NONE', #161, #117 ) ;
#48 = EDGE_LOOP ( 'NONE', ( #53, #8, #78, #218 ) ) ;
#49 = AXIS2_PLACEMENT_3D ( 'NONE', #219, #139, #122 ) ;
#50 = CARTESIAN_POINT ( 'NONE',  ( 1.750000000000000000, 2.143131898507867804E-16, 100.0000000000000000 ) ) ;
#51 = ORIENTED_EDGE ( 'NONE', *, *, #211, .T. ) ;
#52 = CARTESIAN_POINT ( 'NONE',  ( 0.000000000000000000, 0.000000000000000000, 3.000000000000000000 ) ) ;
#53 = ORIENTED_EDGE ( 'NONE', *, *, #168, .F. ) ;
#54 = PRODUCT_DEFINITION_SHAPE ( 'NONE', 'NONE',  #233 ) ;
#55 = DIRECTION ( 'NONE',  ( -1.000000000000000000, 0.000000000000000000, 0.000000000000000000 ) ) ;
#56 = DIRECTION ( 'NONE',  ( 1.000000000000000000, 0.000000000000000000, 0.000000000000000000 ) ) ;
#57 = CARTESIAN_POINT ( 'NONE',  ( 0.000000000000000000, 0.000000000000000000, 0.000000000000000000 ) ) ;
#58 = DIRECTION ( 'NONE',  ( 0.000000000000000000, 0.000000000000000000, 1.000000000000000000 ) ) ;
#59 = PERSON_AND_ORGANIZATION ( #107, #132 ) ;
#60 = APPLICATION_PROTOCOL_DEFINITION ( 'international standard', 'config_control_design', 1994, #154 ) ;
#61 = CC_DESIGN_SECURITY_CLASSIFICATION ( #38, ( #67 ) ) ;
#62 = CARTESIAN_POINT ( 'NONE',  ( 0.000000000000000000, 0.000000000000000000, 3.000000000000000000 ) ) ;
#63 = CYLINDRICAL_SURFACE ( 'NONE', #95, 1.750000000000000000 ) ;
#64 = DATE_TIME_ROLE ( 'classification_date' ) ;
#65 = DIRECTION ( 'NONE',  ( 0.000000000000000000, 0.000000000000000000, 1.000000000000000000 ) ) ;
#66 = COORDINATED_UNIVERSAL_TIME_OFFSET ( 1, 0, .AHEAD. ) ;
#67 = PRODUCT_DEFINITION_FORMATION_WITH_SPECIFIED_SOURCE ( 'LIBOVOLNÝ', '', #71, .NOT_KNOWN. ) ;
#68 = CALENDAR_DATE ( 2023, 12, 2 ) ;
#69 = CIRCLE ( 'NONE', #177, 3.500000000000000000 ) ;
#70 = DIRECTION ( 'NONE',  ( -0.000000000000000000, -0.000000000000000000, -1.000000000000000000 ) ) ;
#71 = PRODUCT ( '08de', '08de', '', ( #171 ) ) ;
#72 = DIRECTION ( 'NONE',  ( -0.000000000000000000, -0.000000000000000000, -1.000000000000000000 ) ) ;
#73 = CARTESIAN_POINT ( 'NONE',  ( 0.000000000000000000, 0.000000000000000000, 3.000000000000000000 ) ) ;
#74 = EDGE_CURVE ( 'NONE', #28, #76, #2, .T. ) ;
#75 = DIRECTION ( 'NONE',  ( 0.000000000000000000, 0.000000000000000000, 1.000000000000000000 ) ) ;
#76 = VERTEX_POINT ( 'NONE', #221 ) ;
#77 = DIRECTION ( 'NONE',  ( -1.000000000000000000, 0.000000000000000000, 0.000000000000000000 ) ) ;
#78 = ORIENTED_EDGE ( 'NONE', *, *, #137, .T. ) ;
#79 = CC_DESIGN_PERSON_AND_ORGANIZATION_ASSIGNMENT ( #173, #97, ( #38 ) ) ;
#80 = AXIS2_PLACEMENT_3D ( 'NONE', #21, #252, #111 ) ;
#81 = DIRECTION ( 'NONE',  ( -0.000000000000000000, -0.000000000000000000, -1.000000000000000000 ) ) ;
#82 = CARTESIAN_POINT ( 'NONE',  ( 0.000000000000000000, 0.000000000000000000, 100.0000000000000000 ) ) ;
#83 = APPLICATION_PROTOCOL_DEFINITION ( 'international standard', 'config_control_design', 1994, #13 ) ;
#84 = CALENDAR_DATE ( 2023, 12, 2 ) ;
#85 = AXIS2_PLACEMENT_3D ( 'NONE', #249, #127, #10 ) ;
#86 = ORIENTED_EDGE ( 'NONE', *, *, #156, .F. ) ;
#87 = VERTEX_POINT ( 'NONE', #202 ) ;
#88 = CYLINDRICAL_SURFACE ( 'NONE', #37, 3.500000000000000000 ) ;
#89 = ORIENTED_EDGE ( 'NONE', *, *, #254, .T. ) ;
#90 = AXIS2_PLACEMENT_3D ( 'NONE', #82, #65, #255 ) ;
#91 = LINE ( 'NONE', #144, #234 ) ;
#92 = ORIENTED_EDGE ( 'NONE', *, *, #254, .F. ) ;
#93 = EDGE_LOOP ( 'NONE', ( #125, #89, #238, #86 ) ) ;
#94 = EDGE_CURVE ( 'NONE', #87, #9, #69, .T. ) ;
#95 = AXIS2_PLACEMENT_3D ( 'NONE', #206, #16, #188 ) ;
#96 = CARTESIAN_POINT ( 'NONE',  ( 0.000000000000000000, 0.000000000000000000, 0.000000000000000000 ) ) ;
#97 = PERSON_AND_ORGANIZATION_ROLE ( 'classification_officer' ) ;
#98 = DATE_AND_TIME ( #170, #166 ) ;
#99 = APPROVAL_PERSON_ORGANIZATION ( #43, #231, #153 ) ;
#100 = EDGE_CURVE ( 'NONE', #135, #157, #195, .T. ) ;
#101 = PERSON_AND_ORGANIZATION_ROLE ( 'creator' ) ;
#102 = ORIENTED_EDGE ( 'NONE', *, *, #228, .T. ) ;
#103 = ORIENTED_EDGE ( 'NONE', *, *, #33, .T. ) ;
#104 = ADVANCED_FACE ( 'NONE', ( #12 ), #88, .T. ) ;
#105 = CARTESIAN_POINT ( 'NONE',  ( 3.500000000000000000, 4.286263797015736595E-16, 0.000000000000000000 ) ) ;
#106 = PLANE ( 'NONE',  #241 ) ;
#107 = PERSON ( 'NEURÈENÝ', 'NEURÈENÝ', 'NEURÈENÝ', ('NEURÈENÝ'), ('NEURÈENÝ'), ('NEURÈENÝ') ) ;
#108 = DIRECTION ( 'NONE',  ( 1.000000000000000000, 0.000000000000000000, 0.000000000000000000 ) ) ;
#109 =( NAMED_UNIT ( * ) SI_UNIT ( $, .STERADIAN. ) SOLID_ANGLE_UNIT ( ) );
#110 = CIRCLE ( 'NONE', #114, 1.750000000000000000 ) ;
#111 = DIRECTION ( 'NONE',  ( 1.000000000000000000, 0.000000000000000000, 0.000000000000000000 ) ) ;
#112 = PERSON_AND_ORGANIZATION_ROLE ( 'design_owner' ) ;
#113 = PLANE ( 'NONE',  #23 ) ;
#114 = AXIS2_PLACEMENT_3D ( 'NONE', #62, #230, #203 ) ;
#115 = DATE_TIME_ROLE ( 'creation_date' ) ;
#116 = COORDINATED_UNIVERSAL_TIME_OFFSET ( 1, 0, .AHEAD. ) ;
#117 = VECTOR ( 'NONE', #70, 1000.000000000000000 ) ;
#118 = AXIS2_PLACEMENT_3D ( 'NONE', #227, #130, #19 ) ;
#119 = PERSON_AND_ORGANIZATION_ROLE ( 'creator' ) ;
#120 = APPROVAL ( #22, 'NEURÈENÝ' ) ;
#121 = VECTOR ( 'NONE', #222, 1000.000000000000000 ) ;
#122 = DIRECTION ( 'NONE',  ( 1.000000000000000000, 0.000000000000000000, 0.000000000000000000 ) ) ;
#123 = LOCAL_TIME ( 13, 11, 15.00000000000000000, #116 ) ;
#124 = CARTESIAN_POINT ( 'NONE',  ( -3.500000000000000000, 0.000000000000000000, 3.000000000000000000 ) ) ;
#125 = ORIENTED_EDGE ( 'NONE', *, *, #33, .F. ) ;
#126 = VERTEX_POINT ( 'NONE', #50 ) ;
#127 = DIRECTION ( 'NONE',  ( 0.000000000000000000, 0.000000000000000000, 1.000000000000000000 ) ) ;
#128 = CARTESIAN_POINT ( 'NONE',  ( 0.000000000000000000, 0.000000000000000000, 3.000000000000000000 ) ) ;
#129 = FACE_BOUND ( 'NONE', #31, .T. ) ;
#130 = DIRECTION ( 'NONE',  ( 0.000000000000000000, 0.000000000000000000, 1.000000000000000000 ) ) ;
#131 = PLANE ( 'NONE',  #90 ) ;
#132 = ORGANIZATION ( 'NEURÈENÝ', 'NEURÈENÝ', '' ) ;
#133 = DATE_AND_TIME ( #68, #152 ) ;
#134 = COORDINATED_UNIVERSAL_TIME_OFFSET ( 1, 0, .AHEAD. ) ;
#135 = VERTEX_POINT ( 'NONE', #124 ) ;
#136 = APPROVAL_ROLE ( '' ) ;
#137 = EDGE_CURVE ( 'NONE', #9, #87, #172, .T. ) ;
#138 = CARTESIAN_POINT ( 'NONE',  ( 1.750000000000000000, 2.143131898507867804E-16, 3.000000000000000000 ) ) ;
#139 = DIRECTION ( 'NONE',  ( 0.000000000000000000, 0.000000000000000000, 1.000000000000000000 ) ) ;
#140 = DIRECTION ( 'NONE',  ( 1.000000000000000000, 0.000000000000000000, 0.000000000000000000 ) ) ;
#141 = ADVANCED_FACE ( 'NONE', ( #129, #220 ), #106, .T. ) ;
#142 = DIRECTION ( 'NONE',  ( 0.000000000000000000, 0.000000000000000000, 1.000000000000000000 ) ) ;
#143 = LINE ( 'NONE', #200, #121 ) ;
#144 = CARTESIAN_POINT ( 'NONE',  ( -1.750000000000000000, 0.000000000000000000, 100.0000000000000000 ) ) ;
#145 = DIRECTION ( 'NONE',  ( 0.000000000000000000, 0.000000000000000000, 1.000000000000000000 ) ) ;
#146 = ADVANCED_FACE ( 'NONE', ( #30 ), #201, .T. ) ;
#147 = CARTESIAN_POINT ( 'NONE',  ( 1.750000000000000000, 2.143131898507867804E-16, 100.0000000000000000 ) ) ;
#148 = CIRCLE ( 'NONE', #49, 1.750000000000000000 ) ;
#149 = PERSON_AND_ORGANIZATION ( #107, #132 ) ;
#150 = PERSON_AND_ORGANIZATION ( #107, #132 ) ;
#151 = EDGE_LOOP ( 'NONE', ( #102, #103 ) ) ;
#152 = LOCAL_TIME ( 13, 11, 15.00000000000000000, #134 ) ;
#153 = APPROVAL_ROLE ( '' ) ;
#154 = APPLICATION_CONTEXT ( 'configuration controlled 3d designs of mechanical parts and assemblies' ) ;
#155 = DATE_AND_TIME ( #207, #123 ) ;
#156 = EDGE_CURVE ( 'NONE', #20, #76, #91, .T. ) ;
#157 = VERTEX_POINT ( 'NONE', #247 ) ;
#158 = CARTESIAN_POINT ( 'NONE',  ( 0.000000000000000000, 0.000000000000000000, 100.0000000000000000 ) ) ;
#159 = FACE_OUTER_BOUND ( 'NONE', #246, .T. ) ;
#160 = CC_DESIGN_APPROVAL ( #39, ( #233 ) ) ;
#161 = CARTESIAN_POINT ( 'NONE',  ( -3.500000000000000000, 0.000000000000000000, 3.000000000000000000 ) ) ;
#162 = CC_DESIGN_APPROVAL ( #231, ( #38 ) ) ;
#163 = DIRECTION ( 'NONE',  ( -0.000000000000000000, -0.000000000000000000, -1.000000000000000000 ) ) ;
#164 = ORIENTED_EDGE ( 'NONE', *, *, #6, .F. ) ;
#165 = CARTESIAN_POINT ( 'NONE',  ( 0.000000000000000000, 0.000000000000000000, 3.000000000000000000 ) ) ;
#166 = LOCAL_TIME ( 13, 11, 15.00000000000000000, #236 ) ;
#167 = DIRECTION ( 'NONE',  ( 0.000000000000000000, 0.000000000000000000, 1.000000000000000000 ) ) ;
#168 = EDGE_CURVE ( 'NONE', #157, #135, #250, .T. ) ;
#169 = AXIS2_PLACEMENT_3D ( 'NONE', #197, #75, #140 ) ;
#170 = CALENDAR_DATE ( 2023, 12, 2 ) ;
#171 = MECHANICAL_CONTEXT ( 'NONE', #154, 'mechanical' ) ;
#172 = CIRCLE ( 'NONE', #85, 3.500000000000000000 ) ;
#173 = PERSON_AND_ORGANIZATION ( #107, #132 ) ;
#174 = ORIENTED_EDGE ( 'NONE', *, *, #211, .F. ) ;
#175 = CC_DESIGN_PERSON_AND_ORGANIZATION_ASSIGNMENT ( #150, #213, ( #67 ) ) ;
#176 = ADVANCED_FACE ( 'NONE', ( #205 ), #63, .T. ) ;
#177 = AXIS2_PLACEMENT_3D ( 'NONE', #57, #145, #226 ) ;
#178 = EDGE_LOOP ( 'NONE', ( #214, #7 ) ) ;
#179 = CC_DESIGN_DATE_AND_TIME_ASSIGNMENT ( #212, #64, ( #38 ) ) ;
#180 = ORIENTED_EDGE ( 'NONE', *, *, #228, .F. ) ;
#181 = DIRECTION ( 'NONE',  ( 0.000000000000000000, 0.000000000000000000, 1.000000000000000000 ) ) ;
#182 = DIRECTION ( 'NONE',  ( -1.000000000000000000, 0.000000000000000000, 0.000000000000000000 ) ) ;
#183 = CLOSED_SHELL ( 'NONE', ( #176, #104, #146, #141, #191, #15, #216 ) ) ;
#184 = CC_DESIGN_APPROVAL ( #120, ( #67 ) ) ;
#185 = FACE_OUTER_BOUND ( 'NONE', #151, .T. ) ;
#186 = FACE_OUTER_BOUND ( 'NONE', #178, .T. ) ;
#187 = DIRECTION ( 'NONE',  ( 1.000000000000000000, 0.000000000000000000, -0.000000000000000000 ) ) ;
#188 = DIRECTION ( 'NONE',  ( -1.000000000000000000, 0.000000000000000000, 0.000000000000000000 ) ) ;
#189 =( LENGTH_UNIT ( ) NAMED_UNIT ( * ) SI_UNIT ( .MILLI., .METRE. ) );
#190 = CC_DESIGN_PERSON_AND_ORGANIZATION_ASSIGNMENT ( #18, #101, ( #67 ) ) ;
#191 = ADVANCED_FACE ( 'NONE', ( #186 ), #113, .F. ) ;
#192 = CALENDAR_DATE ( 2023, 12, 2 ) ;
#193 = UNCERTAINTY_MEASURE_WITH_UNIT (LENGTH_MEASURE( 1.000000000000000082E-05 ), #189, 'distance_accuracy_value', 'NONE');
#194 = ADVANCED_BREP_SHAPE_REPRESENTATION ( '08de', ( #26, #80 ), #41 ) ;
#195 = CIRCLE ( 'NONE', #209, 3.500000000000000000 ) ;
#196 = VECTOR ( 'NONE', #81, 1000.000000000000000 ) ;
#197 = CARTESIAN_POINT ( 'NONE',  ( 0.000000000000000000, 0.000000000000000000, 3.000000000000000000 ) ) ;
#198 = DIRECTION ( 'NONE',  ( -0.000000000000000000, -0.000000000000000000, -1.000000000000000000 ) ) ;
#199 = ORIENTED_EDGE ( 'NONE', *, *, #94, .T. ) ;
#200 = CARTESIAN_POINT ( 'NONE',  ( 3.500000000000000000, 4.286263797015736595E-16, 3.000000000000000000 ) ) ;
#201 = CYLINDRICAL_SURFACE ( 'NONE', #3, 3.500000000000000000 ) ;
#202 = CARTESIAN_POINT ( 'NONE',  ( -3.500000000000000000, 0.000000000000000000, 0.000000000000000000 ) ) ;
#203 = DIRECTION ( 'NONE',  ( 1.000000000000000000, 0.000000000000000000, 0.000000000000000000 ) ) ;
#204 = LOCAL_TIME ( 13, 11, 15.00000000000000000, #66 ) ;
#205 = FACE_OUTER_BOUND ( 'NONE', #93, .T. ) ;
#206 = CARTESIAN_POINT ( 'NONE',  ( 0.000000000000000000, 0.000000000000000000, 100.0000000000000000 ) ) ;
#207 = CALENDAR_DATE ( 2023, 12, 2 ) ;
#208 =( NAMED_UNIT ( * ) PLANE_ANGLE_UNIT ( ) SI_UNIT ( $, .RADIAN. ) );
#209 = AXIS2_PLACEMENT_3D ( 'NONE', #128, #181, #108 ) ;
#210 = SHAPE_DEFINITION_REPRESENTATION ( #54, #194 ) ;
#211 = EDGE_CURVE ( 'NONE', #76, #28, #110, .T. ) ;
#212 = DATE_AND_TIME ( #84, #204 ) ;
#213 = PERSON_AND_ORGANIZATION_ROLE ( 'design_supplier' ) ;
#214 = ORIENTED_EDGE ( 'NONE', *, *, #94, .F. ) ;
#215 = CC_DESIGN_DATE_AND_TIME_ASSIGNMENT ( #155, #115, ( #233 ) ) ;
#216 = ADVANCED_FACE ( 'NONE', ( #185 ), #131, .T. ) ;
#217 = DESIGN_CONTEXT ( 'detailed design', #13, 'design' ) ;
#218 = ORIENTED_EDGE ( 'NONE', *, *, #27, .F. ) ;
#219 = CARTESIAN_POINT ( 'NONE',  ( 0.000000000000000000, 0.000000000000000000, 100.0000000000000000 ) ) ;
#220 = FACE_OUTER_BOUND ( 'NONE', #248, .T. ) ;
#221 = CARTESIAN_POINT ( 'NONE',  ( -1.750000000000000000, 0.000000000000000000, 3.000000000000000000 ) ) ;
#222 = DIRECTION ( 'NONE',  ( -0.000000000000000000, -0.000000000000000000, -1.000000000000000000 ) ) ;
#223 = CC_DESIGN_PERSON_AND_ORGANIZATION_ASSIGNMENT ( #42, #119, ( #233 ) ) ;
#224 = CARTESIAN_POINT ( 'NONE',  ( 0.000000000000000000, 0.000000000000000000, 3.000000000000000000 ) ) ;
#225 = AXIS2_PLACEMENT_3D ( 'NONE', #224, #142, #56 ) ;
#226 = DIRECTION ( 'NONE',  ( 1.000000000000000000, 0.000000000000000000, 0.000000000000000000 ) ) ;
#227 = CARTESIAN_POINT ( 'NONE',  ( 0.000000000000000000, 0.000000000000000000, 100.0000000000000000 ) ) ;
#228 = EDGE_CURVE ( 'NONE', #20, #126, #36, .T. ) ;
#229 = APPROVAL_STATUS ( 'not_yet_approved' ) ;
#230 = DIRECTION ( 'NONE',  ( 0.000000000000000000, 0.000000000000000000, 1.000000000000000000 ) ) ;
#231 = APPROVAL ( #5, 'NEURÈENÝ' ) ;
#232 = APPROVAL_DATE_TIME ( #24, #231 ) ;
#233 = PRODUCT_DEFINITION ( 'NEZNÁMÝ', '', #67, #217 ) ;
#234 = VECTOR ( 'NONE', #163, 1000.000000000000000 ) ;
#235 = APPROVAL_PERSON_ORGANIZATION ( #149, #39, #136 ) ;
#236 = COORDINATED_UNIVERSAL_TIME_OFFSET ( 1, 0, .AHEAD. ) ;
#237 = APPROVAL_ROLE ( '' ) ;
#238 = ORIENTED_EDGE ( 'NONE', *, *, #74, .T. ) ;
#239 = APPROVAL_DATE_TIME ( #98, #39 ) ;
#240 = ORIENTED_EDGE ( 'NONE', *, *, #100, .F. ) ;
#241 = AXIS2_PLACEMENT_3D ( 'NONE', #165, #58, #34 ) ;
#242 = ORIENTED_EDGE ( 'NONE', *, *, #168, .T. ) ;
#243 = ORIENTED_EDGE ( 'NONE', *, *, #100, .T. ) ;
#244 = CYLINDRICAL_SURFACE ( 'NONE', #35, 1.750000000000000000 ) ;
#245 = LOCAL_TIME ( 13, 11, 15.00000000000000000, #40 ) ;
#246 = EDGE_LOOP ( 'NONE', ( #92, #180, #29, #51 ) ) ;
#247 = CARTESIAN_POINT ( 'NONE',  ( 3.500000000000000000, 4.286263797015736595E-16, 3.000000000000000000 ) ) ;
#248 = EDGE_LOOP ( 'NONE', ( #243, #242 ) ) ;
#249 = CARTESIAN_POINT ( 'NONE',  ( 0.000000000000000000, 0.000000000000000000, 0.000000000000000000 ) ) ;
#250 = CIRCLE ( 'NONE', #225, 3.500000000000000000 ) ;
#251 = LINE ( 'NONE', #147, #196 ) ;
#252 = DIRECTION ( 'NONE',  ( 0.000000000000000000, 0.000000000000000000, 1.000000000000000000 ) ) ;
#253 = SECURITY_CLASSIFICATION_LEVEL ( 'unclassified' ) ;
#254 = EDGE_CURVE ( 'NONE', #126, #28, #251, .T. ) ;
#255 = DIRECTION ( 'NONE',  ( 1.000000000000000000, 0.000000000000000000, -0.000000000000000000 ) ) ;
ENDSEC;
END-ISO-10303-21;
