ISO-10303-21;
HEADER;
FILE_DESCRIPTION (( 'STEP AP203' ),
    '1' );
FILE_NAME ('cb4e.STEP',
    '2023-02-12T12:13:48',
    ( '' ),
    ( '' ),
    'SwSTEP 2.0',
    'SolidWorks 2019',
    '' );
FILE_SCHEMA (( 'CONFIG_CONTROL_DESIGN' ));
ENDSEC;

DATA;
#1 = EDGE_LOOP ( 'NONE', ( #43, #23, #86, #184 ) ) ;
#2 = FACE_OUTER_BOUND ( 'NONE', #64, .T. ) ;
#3 = CIRCLE ( 'NONE', #204, 3.000000000000000444 ) ;
#4 = LOCAL_TIME ( 13, 13, 48.00000000000000000, #201 ) ;
#5 = ORIENTED_EDGE ( 'NONE', *, *, #122, .T. ) ;
#6 = VERTEX_POINT ( 'NONE', #104 ) ;
#7 = CARTESIAN_POINT ( 'NONE',  ( 0.000000000000000000, 0.000000000000000000, 0.000000000000000000 ) ) ;
#8 = DIRECTION ( 'NONE',  ( -1.000000000000000000, 0.000000000000000000, 0.000000000000000000 ) ) ;
#9 = VECTOR ( 'NONE', #221, 1000.000000000000000 ) ;
#10 = PERSON_AND_ORGANIZATION ( #224, #120 ) ;
#11 = FACE_OUTER_BOUND ( 'NONE', #199, .T. ) ;
#12 = DATE_TIME_ROLE ( 'creation_date' ) ;
#13 = DIRECTION ( 'NONE',  ( 1.000000000000000000, 0.000000000000000000, -0.000000000000000000 ) ) ;
#14 = DIRECTION ( 'NONE',  ( -0.000000000000000000, -0.000000000000000000, -1.000000000000000000 ) ) ;
#15 = AXIS2_PLACEMENT_3D ( 'NONE', #39, #149, #53 ) ;
#16 = AXIS2_PLACEMENT_3D ( 'NONE', #89, #169, #190 ) ;
#17 = FACE_BOUND ( 'NONE', #213, .T. ) ;
#18 = CARTESIAN_POINT ( 'NONE',  ( 0.000000000000000000, 0.000000000000000000, 3.000000000000000000 ) ) ;
#19 = PERSON_AND_ORGANIZATION ( #224, #120 ) ;
#20 = APPROVAL_PERSON_ORGANIZATION ( #128, #21, #191 ) ;
#21 = APPROVAL ( #189, 'NEURÈENÝ' ) ;
#22 = ORIENTED_EDGE ( 'NONE', *, *, #138, .T. ) ;
#23 = ORIENTED_EDGE ( 'NONE', *, *, #103, .T. ) ;
#24 = EDGE_LOOP ( 'NONE', ( #198, #216, #47, #177 ) ) ;
#25 = CC_DESIGN_SECURITY_CLASSIFICATION ( #249, ( #32 ) ) ;
#26 = APPROVAL_DATE_TIME ( #91, #130 ) ;
#27 = VERTEX_POINT ( 'NONE', #179 ) ;
#28 = ADVANCED_FACE ( 'NONE', ( #2 ), #240, .F. ) ;
#29 = CALENDAR_DATE ( 2023, 12, 2 ) ;
#30 = DIRECTION ( 'NONE',  ( -0.000000000000000000, -0.000000000000000000, -1.000000000000000000 ) ) ;
#31 = AXIS2_PLACEMENT_3D ( 'NONE', #67, #75, #208 ) ;
#32 = PRODUCT_DEFINITION_FORMATION_WITH_SPECIFIED_SOURCE ( 'LIBOVOLNÝ', '', #61, .NOT_KNOWN. ) ;
#33 = COORDINATED_UNIVERSAL_TIME_OFFSET ( 1, 0, .AHEAD. ) ;
#34 = FACE_OUTER_BOUND ( 'NONE', #1, .T. ) ;
#35 = DIRECTION ( 'NONE',  ( 1.000000000000000000, 0.000000000000000000, 0.000000000000000000 ) ) ;
#36 = CARTESIAN_POINT ( 'NONE',  ( -1.500000000000000222, 0.000000000000000000, 3.000000000000000000 ) ) ;
#37 = FACE_OUTER_BOUND ( 'NONE', #24, .T. ) ;
#38 = CIRCLE ( 'NONE', #137, 3.000000000000000444 ) ;
#39 = CARTESIAN_POINT ( 'NONE',  ( 0.000000000000000000, 0.000000000000000000, 0.000000000000000000 ) ) ;
#40 = APPROVAL_ROLE ( '' ) ;
#41 = PRODUCT_DEFINITION ( 'NEZNÁMÝ', '', #32, #60 ) ;
#42 = CC_DESIGN_APPROVAL ( #130, ( #32 ) ) ;
#43 = ORIENTED_EDGE ( 'NONE', *, *, #122, .F. ) ;
#44 = ORIENTED_EDGE ( 'NONE', *, *, #103, .F. ) ;
#45 = CC_DESIGN_PERSON_AND_ORGANIZATION_ASSIGNMENT ( #73, #222, ( #249 ) ) ;
#46 = APPROVAL_PERSON_ORGANIZATION ( #76, #130, #93 ) ;
#47 = ORIENTED_EDGE ( 'NONE', *, *, #238, .T. ) ;
#48 =( LENGTH_UNIT ( ) NAMED_UNIT ( * ) SI_UNIT ( .MILLI., .METRE. ) );
#49 = DIRECTION ( 'NONE',  ( 1.000000000000000000, 0.000000000000000000, 0.000000000000000000 ) ) ;
#50 = ADVANCED_FACE ( 'NONE', ( #37 ), #188, .T. ) ;
#51 = LINE ( 'NONE', #226, #9 ) ;
#52 = LOCAL_TIME ( 13, 13, 48.00000000000000000, #33 ) ;
#53 = DIRECTION ( 'NONE',  ( 1.000000000000000000, 0.000000000000000000, 0.000000000000000000 ) ) ;
#54 = CARTESIAN_POINT ( 'NONE',  ( -1.500000000000000222, 0.000000000000000000, 160.0000000000000000 ) ) ;
#55 = PERSON_AND_ORGANIZATION ( #224, #120 ) ;
#56 = CARTESIAN_POINT ( 'NONE',  ( 0.000000000000000000, 0.000000000000000000, 3.000000000000000000 ) ) ;
#57 = DIRECTION ( 'NONE',  ( -0.000000000000000000, -0.000000000000000000, -1.000000000000000000 ) ) ;
#58 = DATE_AND_TIME ( #173, #194 ) ;
#59 = AXIS2_PLACEMENT_3D ( 'NONE', #119, #171, #72 ) ;
#60 = DESIGN_CONTEXT ( 'detailed design', #63, 'design' ) ;
#61 = PRODUCT ( 'cb4e', 'cb4e', '', ( #187 ) ) ;
#62 = ADVANCED_BREP_SHAPE_REPRESENTATION ( 'cb4e', ( #182, #253 ), #123 ) ;
#63 = APPLICATION_CONTEXT ( 'configuration controlled 3d designs of mechanical parts and assemblies' ) ;
#64 = EDGE_LOOP ( 'NONE', ( #161, #236 ) ) ;
#65 = ORIENTED_EDGE ( 'NONE', *, *, #97, .F. ) ;
#66 = AXIS2_PLACEMENT_3D ( 'NONE', #56, #111, #205 ) ;
#67 = CARTESIAN_POINT ( 'NONE',  ( 0.000000000000000000, 0.000000000000000000, 0.000000000000000000 ) ) ;
#68 = APPLICATION_PROTOCOL_DEFINITION ( 'international standard', 'config_control_design', 1994, #178 ) ;
#69 = ORIENTED_EDGE ( 'NONE', *, *, #227, .T. ) ;
#70 = APPROVAL_STATUS ( 'not_yet_approved' ) ;
#71 = CC_DESIGN_DATE_AND_TIME_ASSIGNMENT ( #242, #12, ( #41 ) ) ;
#72 = DIRECTION ( 'NONE',  ( -1.000000000000000000, 0.000000000000000000, 0.000000000000000000 ) ) ;
#73 = PERSON_AND_ORGANIZATION ( #224, #120 ) ;
#74 = DIRECTION ( 'NONE',  ( 0.000000000000000000, 0.000000000000000000, 1.000000000000000000 ) ) ;
#75 = DIRECTION ( 'NONE',  ( 0.000000000000000000, 0.000000000000000000, 1.000000000000000000 ) ) ;
#76 = PERSON_AND_ORGANIZATION ( #224, #120 ) ;
#77 = LINE ( 'NONE', #54, #170 ) ;
#78 = EDGE_CURVE ( 'NONE', #156, #27, #51, .T. ) ;
#79 = CARTESIAN_POINT ( 'NONE',  ( 0.000000000000000000, 0.000000000000000000, 3.000000000000000000 ) ) ;
#80 = EDGE_CURVE ( 'NONE', #140, #158, #105, .T. ) ;
#81 = UNCERTAINTY_MEASURE_WITH_UNIT (LENGTH_MEASURE( 1.000000000000000082E-05 ), #48, 'distance_accuracy_value', 'NONE');
#82 = CLOSED_SHELL ( 'NONE', ( #212, #50, #142, #117, #28, #159, #87 ) ) ;
#83 = EDGE_LOOP ( 'NONE', ( #180, #65, #143, #214 ) ) ;
#84 = ORIENTED_EDGE ( 'NONE', *, *, #80, .F. ) ;
#85 = CARTESIAN_POINT ( 'NONE',  ( 0.000000000000000000, 0.000000000000000000, 0.000000000000000000 ) ) ;
#86 = ORIENTED_EDGE ( 'NONE', *, *, #80, .T. ) ;
#87 = ADVANCED_FACE ( 'NONE', ( #11 ), #118, .T. ) ;
#88 = APPROVAL_DATE_TIME ( #247, #21 ) ;
#89 = CARTESIAN_POINT ( 'NONE',  ( 0.000000000000000000, 0.000000000000000000, 3.000000000000000000 ) ) ;
#90 = CIRCLE ( 'NONE', #163, 3.000000000000000444 ) ;
#91 = DATE_AND_TIME ( #29, #176 ) ;
#92 = DIRECTION ( 'NONE',  ( -1.000000000000000000, 0.000000000000000000, 0.000000000000000000 ) ) ;
#93 = APPROVAL_ROLE ( '' ) ;
#94 = DIRECTION ( 'NONE',  ( 0.000000000000000000, 0.000000000000000000, 1.000000000000000000 ) ) ;
#95 =( NAMED_UNIT ( * ) SI_UNIT ( $, .STERADIAN. ) SOLID_ANGLE_UNIT ( ) );
#96 = FACE_OUTER_BOUND ( 'NONE', #83, .T. ) ;
#97 = EDGE_CURVE ( 'NONE', #219, #156, #3, .T. ) ;
#98 = AXIS2_PLACEMENT_3D ( 'NONE', #151, #14, #92 ) ;
#99 = DIRECTION ( 'NONE',  ( 0.000000000000000000, 0.000000000000000000, 1.000000000000000000 ) ) ;
#100 = DIRECTION ( 'NONE',  ( 1.000000000000000000, 0.000000000000000000, 0.000000000000000000 ) ) ;
#101 = APPROVAL ( #254, 'NEURÈENÝ' ) ;
#102 = ORIENTED_EDGE ( 'NONE', *, *, #97, .T. ) ;
#103 = EDGE_CURVE ( 'NONE', #217, #140, #230, .T. ) ;
#104 = CARTESIAN_POINT ( 'NONE',  ( -1.500000000000000222, 0.000000000000000000, 160.0000000000000000 ) ) ;
#105 = CIRCLE ( 'NONE', #16, 1.500000000000000222 ) ;
#106 = SECURITY_CLASSIFICATION_LEVEL ( 'unclassified' ) ;
#107 = ORIENTED_EDGE ( 'NONE', *, *, #181, .F. ) ;
#108 = CALENDAR_DATE ( 2023, 12, 2 ) ;
#109 = DIRECTION ( 'NONE',  ( 0.000000000000000000, 0.000000000000000000, 1.000000000000000000 ) ) ;
#110 = COORDINATED_UNIVERSAL_TIME_OFFSET ( 1, 0, .AHEAD. ) ;
#111 = DIRECTION ( 'NONE',  ( 0.000000000000000000, 0.000000000000000000, 1.000000000000000000 ) ) ;
#112 = AXIS2_PLACEMENT_3D ( 'NONE', #136, #109, #168 ) ;
#113 = APPROVAL_PERSON_ORGANIZATION ( #19, #101, #40 ) ;
#114 = CIRCLE ( 'NONE', #66, 1.500000000000000222 ) ;
#115 = PERSON_AND_ORGANIZATION_ROLE ( 'design_owner' ) ;
#116 = DIRECTION ( 'NONE',  ( -0.000000000000000000, -0.000000000000000000, -1.000000000000000000 ) ) ;
#117 = ADVANCED_FACE ( 'NONE', ( #17, #146 ), #206, .T. ) ;
#118 = PLANE ( 'NONE',  #112 ) ;
#119 = CARTESIAN_POINT ( 'NONE',  ( 0.000000000000000000, 0.000000000000000000, 160.0000000000000000 ) ) ;
#120 = ORGANIZATION ( 'NEURÈENÝ', 'NEURÈENÝ', '' ) ;
#121 = DIRECTION ( 'NONE',  ( 0.000000000000000000, 0.000000000000000000, 1.000000000000000000 ) ) ;
#122 = EDGE_CURVE ( 'NONE', #217, #6, #153, .T. ) ;
#123 =( GEOMETRIC_REPRESENTATION_CONTEXT ( 3 ) GLOBAL_UNCERTAINTY_ASSIGNED_CONTEXT ( ( #81 ) ) GLOBAL_UNIT_ASSIGNED_CONTEXT ( ( #48, #218, #95 ) ) REPRESENTATION_CONTEXT ( 'NONE', 'WORKASPACE' ) );
#124 = CC_DESIGN_DATE_AND_TIME_ASSIGNMENT ( #196, #175, ( #249 ) ) ;
#125 = EDGE_LOOP ( 'NONE', ( #102, #69 ) ) ;
#126 = EDGE_CURVE ( 'NONE', #6, #217, #239, .T. ) ;
#127 = ORIENTED_EDGE ( 'NONE', *, *, #126, .F. ) ;
#128 = PERSON_AND_ORGANIZATION ( #224, #120 ) ;
#129 = EDGE_LOOP ( 'NONE', ( #44, #127, #22, #141 ) ) ;
#130 = APPROVAL ( #70, 'NEURÈENÝ' ) ;
#131 = CYLINDRICAL_SURFACE ( 'NONE', #174, 1.500000000000000222 ) ;
#132 = CARTESIAN_POINT ( 'NONE',  ( 0.000000000000000000, 0.000000000000000000, 160.0000000000000000 ) ) ;
#133 = DIRECTION ( 'NONE',  ( 1.000000000000000000, 0.000000000000000000, 0.000000000000000000 ) ) ;
#134 = CALENDAR_DATE ( 2023, 12, 2 ) ;
#135 = CARTESIAN_POINT ( 'NONE',  ( 1.500000000000000222, 1.836970198721030181E-16, 3.000000000000000000 ) ) ;
#136 = CARTESIAN_POINT ( 'NONE',  ( 0.000000000000000000, 0.000000000000000000, 160.0000000000000000 ) ) ;
#137 = AXIS2_PLACEMENT_3D ( 'NONE', #85, #220, #133 ) ;
#138 = EDGE_CURVE ( 'NONE', #6, #158, #77, .T. ) ;
#139 = CC_DESIGN_PERSON_AND_ORGANIZATION_ASSIGNMENT ( #55, #167, ( #32 ) ) ;
#140 = VERTEX_POINT ( 'NONE', #135 ) ;
#141 = ORIENTED_EDGE ( 'NONE', *, *, #181, .T. ) ;
#142 = ADVANCED_FACE ( 'NONE', ( #96 ), #150, .T. ) ;
#143 = ORIENTED_EDGE ( 'NONE', *, *, #215, .T. ) ;
#144 = COORDINATED_UNIVERSAL_TIME_OFFSET ( 1, 0, .AHEAD. ) ;
#145 = LINE ( 'NONE', #251, #197 ) ;
#146 = FACE_OUTER_BOUND ( 'NONE', #125, .T. ) ;
#147 = CALENDAR_DATE ( 2023, 12, 2 ) ;
#148 = DIRECTION ( 'NONE',  ( -0.000000000000000000, -0.000000000000000000, -1.000000000000000000 ) ) ;
#149 = DIRECTION ( 'NONE',  ( 0.000000000000000000, 0.000000000000000000, 1.000000000000000000 ) ) ;
#150 = CYLINDRICAL_SURFACE ( 'NONE', #98, 3.000000000000000444 ) ;
#151 = CARTESIAN_POINT ( 'NONE',  ( 0.000000000000000000, 0.000000000000000000, 3.000000000000000000 ) ) ;
#152 = COORDINATED_UNIVERSAL_TIME_OFFSET ( 1, 0, .AHEAD. ) ;
#153 = CIRCLE ( 'NONE', #252, 1.500000000000000222 ) ;
#154 = APPROVAL_DATE_TIME ( #58, #101 ) ;
#155 = LOCAL_TIME ( 13, 13, 48.00000000000000000, #144 ) ;
#156 = VERTEX_POINT ( 'NONE', #246 ) ;
#157 = CC_DESIGN_APPROVAL ( #21, ( #41 ) ) ;
#158 = VERTEX_POINT ( 'NONE', #36 ) ;
#159 = ADVANCED_FACE ( 'NONE', ( #166 ), #131, .T. ) ;
#160 = DIRECTION ( 'NONE',  ( 0.000000000000000000, 0.000000000000000000, 1.000000000000000000 ) ) ;
#161 = ORIENTED_EDGE ( 'NONE', *, *, #231, .F. ) ;
#162 = PERSON_AND_ORGANIZATION_ROLE ( 'creator' ) ;
#163 = AXIS2_PLACEMENT_3D ( 'NONE', #18, #121, #100 ) ;
#164 = CARTESIAN_POINT ( 'NONE',  ( 0.000000000000000000, 0.000000000000000000, 3.000000000000000000 ) ) ;
#165 = PERSON_AND_ORGANIZATION ( #224, #120 ) ;
#166 = FACE_OUTER_BOUND ( 'NONE', #129, .T. ) ;
#167 = PERSON_AND_ORGANIZATION_ROLE ( 'design_supplier' ) ;
#168 = DIRECTION ( 'NONE',  ( 1.000000000000000000, 0.000000000000000000, -0.000000000000000000 ) ) ;
#169 = DIRECTION ( 'NONE',  ( 0.000000000000000000, 0.000000000000000000, 1.000000000000000000 ) ) ;
#170 = VECTOR ( 'NONE', #57, 1000.000000000000000 ) ;
#171 = DIRECTION ( 'NONE',  ( -0.000000000000000000, -0.000000000000000000, -1.000000000000000000 ) ) ;
#172 = CARTESIAN_POINT ( 'NONE',  ( -3.000000000000000444, 0.000000000000000000, 3.000000000000000000 ) ) ;
#173 = CALENDAR_DATE ( 2023, 12, 2 ) ;
#174 = AXIS2_PLACEMENT_3D ( 'NONE', #192, #229, #202 ) ;
#175 = DATE_TIME_ROLE ( 'classification_date' ) ;
#176 = LOCAL_TIME ( 13, 13, 48.00000000000000000, #110 ) ;
#177 = ORIENTED_EDGE ( 'NONE', *, *, #215, .F. ) ;
#178 = APPLICATION_CONTEXT ( 'configuration controlled 3d designs of mechanical parts and assemblies' ) ;
#179 = CARTESIAN_POINT ( 'NONE',  ( 3.000000000000000444, 3.673940397442060361E-16, 0.000000000000000000 ) ) ;
#180 = ORIENTED_EDGE ( 'NONE', *, *, #78, .F. ) ;
#181 = EDGE_CURVE ( 'NONE', #158, #140, #114, .T. ) ;
#182 = MANIFOLD_SOLID_BREP ( 'Pøidat vysunutím3', #82 ) ;
#183 = CARTESIAN_POINT ( 'NONE',  ( -3.000000000000000444, 0.000000000000000000, 0.000000000000000000 ) ) ;
#184 = ORIENTED_EDGE ( 'NONE', *, *, #138, .F. ) ;
#185 = DIRECTION ( 'NONE',  ( 1.000000000000000000, 0.000000000000000000, 0.000000000000000000 ) ) ;
#186 = CC_DESIGN_PERSON_AND_ORGANIZATION_ASSIGNMENT ( #10, #244, ( #32 ) ) ;
#187 = MECHANICAL_CONTEXT ( 'NONE', #178, 'mechanical' ) ;
#188 = CYLINDRICAL_SURFACE ( 'NONE', #211, 3.000000000000000444 ) ;
#189 = APPROVAL_STATUS ( 'not_yet_approved' ) ;
#190 = DIRECTION ( 'NONE',  ( 1.000000000000000000, 0.000000000000000000, 0.000000000000000000 ) ) ;
#191 = APPROVAL_ROLE ( '' ) ;
#192 = CARTESIAN_POINT ( 'NONE',  ( 0.000000000000000000, 0.000000000000000000, 160.0000000000000000 ) ) ;
#193 = CARTESIAN_POINT ( 'NONE',  ( 0.000000000000000000, 0.000000000000000000, 3.000000000000000000 ) ) ;
#194 = LOCAL_TIME ( 13, 13, 48.00000000000000000, #152 ) ;
#195 = CARTESIAN_POINT ( 'NONE',  ( 1.500000000000000222, 1.836970198721030181E-16, 160.0000000000000000 ) ) ;
#196 = DATE_AND_TIME ( #147, #52 ) ;
#197 = VECTOR ( 'NONE', #116, 1000.000000000000000 ) ;
#198 = ORIENTED_EDGE ( 'NONE', *, *, #227, .F. ) ;
#199 = EDGE_LOOP ( 'NONE', ( #237, #5 ) ) ;
#200 = CC_DESIGN_PERSON_AND_ORGANIZATION_ASSIGNMENT ( #228, #115, ( #61 ) ) ;
#201 = COORDINATED_UNIVERSAL_TIME_OFFSET ( 1, 0, .AHEAD. ) ;
#202 = DIRECTION ( 'NONE',  ( -1.000000000000000000, 0.000000000000000000, 0.000000000000000000 ) ) ;
#203 = APPLICATION_PROTOCOL_DEFINITION ( 'international standard', 'config_control_design', 1994, #63 ) ;
#204 = AXIS2_PLACEMENT_3D ( 'NONE', #164, #74, #185 ) ;
#205 = DIRECTION ( 'NONE',  ( 1.000000000000000000, 0.000000000000000000, 0.000000000000000000 ) ) ;
#206 = PLANE ( 'NONE',  #255 ) ;
#207 = CYLINDRICAL_SURFACE ( 'NONE', #59, 1.500000000000000222 ) ;
#208 = DIRECTION ( 'NONE',  ( 1.000000000000000000, 0.000000000000000000, -0.000000000000000000 ) ) ;
#209 = VECTOR ( 'NONE', #148, 1000.000000000000000 ) ;
#210 = CC_DESIGN_PERSON_AND_ORGANIZATION_ASSIGNMENT ( #165, #162, ( #41 ) ) ;
#211 = AXIS2_PLACEMENT_3D ( 'NONE', #193, #30, #8 ) ;
#212 = ADVANCED_FACE ( 'NONE', ( #34 ), #207, .T. ) ;
#213 = EDGE_LOOP ( 'NONE', ( #107, #84 ) ) ;
#214 = ORIENTED_EDGE ( 'NONE', *, *, #231, .T. ) ;
#215 = EDGE_CURVE ( 'NONE', #219, #241, #145, .T. ) ;
#216 = ORIENTED_EDGE ( 'NONE', *, *, #78, .T. ) ;
#217 = VERTEX_POINT ( 'NONE', #195 ) ;
#218 =( NAMED_UNIT ( * ) PLANE_ANGLE_UNIT ( ) SI_UNIT ( $, .RADIAN. ) );
#219 = VERTEX_POINT ( 'NONE', #172 ) ;
#220 = DIRECTION ( 'NONE',  ( 0.000000000000000000, 0.000000000000000000, 1.000000000000000000 ) ) ;
#221 = DIRECTION ( 'NONE',  ( -0.000000000000000000, -0.000000000000000000, -1.000000000000000000 ) ) ;
#222 = PERSON_AND_ORGANIZATION_ROLE ( 'classification_officer' ) ;
#223 = DIRECTION ( 'NONE',  ( 0.000000000000000000, 0.000000000000000000, 1.000000000000000000 ) ) ;
#224 = PERSON ( 'NEURÈENÝ', 'NEURÈENÝ', 'NEURÈENÝ', ('NEURÈENÝ'), ('NEURÈENÝ'), ('NEURÈENÝ') ) ;
#225 = CIRCLE ( 'NONE', #15, 3.000000000000000444 ) ;
#226 = CARTESIAN_POINT ( 'NONE',  ( 3.000000000000000444, 3.673940397442060361E-16, 3.000000000000000000 ) ) ;
#227 = EDGE_CURVE ( 'NONE', #156, #219, #90, .T. ) ;
#228 = PERSON_AND_ORGANIZATION ( #224, #120 ) ;
#229 = DIRECTION ( 'NONE',  ( -0.000000000000000000, -0.000000000000000000, -1.000000000000000000 ) ) ;
#230 = LINE ( 'NONE', #245, #209 ) ;
#231 = EDGE_CURVE ( 'NONE', #241, #27, #225, .T. ) ;
#232 = SHAPE_DEFINITION_REPRESENTATION ( #235, #62 ) ;
#233 = CC_DESIGN_APPROVAL ( #101, ( #249 ) ) ;
#234 = PRODUCT_RELATED_PRODUCT_CATEGORY ( 'detail', '', ( #61 ) ) ;
#235 = PRODUCT_DEFINITION_SHAPE ( 'NONE', 'NONE',  #41 ) ;
#236 = ORIENTED_EDGE ( 'NONE', *, *, #238, .F. ) ;
#237 = ORIENTED_EDGE ( 'NONE', *, *, #126, .T. ) ;
#238 = EDGE_CURVE ( 'NONE', #27, #241, #38, .T. ) ;
#239 = CIRCLE ( 'NONE', #248, 1.500000000000000222 ) ;
#240 = PLANE ( 'NONE',  #31 ) ;
#241 = VERTEX_POINT ( 'NONE', #183 ) ;
#242 = DATE_AND_TIME ( #134, #4 ) ;
#243 = DIRECTION ( 'NONE',  ( 1.000000000000000000, 0.000000000000000000, 0.000000000000000000 ) ) ;
#244 = PERSON_AND_ORGANIZATION_ROLE ( 'creator' ) ;
#245 = CARTESIAN_POINT ( 'NONE',  ( 1.500000000000000222, 1.836970198721030181E-16, 160.0000000000000000 ) ) ;
#246 = CARTESIAN_POINT ( 'NONE',  ( 3.000000000000000444, 3.673940397442060361E-16, 3.000000000000000000 ) ) ;
#247 = DATE_AND_TIME ( #108, #155 ) ;
#248 = AXIS2_PLACEMENT_3D ( 'NONE', #250, #94, #243 ) ;
#249 = SECURITY_CLASSIFICATION ( '', '', #106 ) ;
#250 = CARTESIAN_POINT ( 'NONE',  ( 0.000000000000000000, 0.000000000000000000, 160.0000000000000000 ) ) ;
#251 = CARTESIAN_POINT ( 'NONE',  ( -3.000000000000000444, 0.000000000000000000, 3.000000000000000000 ) ) ;
#252 = AXIS2_PLACEMENT_3D ( 'NONE', #132, #223, #49 ) ;
#253 = AXIS2_PLACEMENT_3D ( 'NONE', #7, #160, #35 ) ;
#254 = APPROVAL_STATUS ( 'not_yet_approved' ) ;
#255 = AXIS2_PLACEMENT_3D ( 'NONE', #79, #99, #13 ) ;
ENDSEC;
END-ISO-10303-21;
