ISO-10303-21;
HEADER;
FILE_DESCRIPTION (( 'STEP AP203' ),
    '1' );
FILE_NAME ('f1c2.STEP',
    '2022-07-07T12:46:01',
    ( '' ),
    ( '' ),
    'SwSTEP 2.0',
    'SolidWorks 2019',
    '' );
FILE_SCHEMA (( 'CONFIG_CONTROL_DESIGN' ));
ENDSEC;

DATA;
#1 = ORIENTED_EDGE ( 'NONE', *, *, #123, .T. ) ;
#2 = CALENDAR_DATE ( 2022, 7, 7 ) ;
#3 = EDGE_CURVE ( 'NONE', #14, #247, #188, .T. ) ;
#4 = AXIS2_PLACEMENT_3D ( 'NONE', #275, #57, #153 ) ;
#5 = APPROVAL_ROLE ( '' ) ;
#6 = ORIENTED_EDGE ( 'NONE', *, *, #215, .T. ) ;
#7 = LOCAL_TIME ( 14, 46, 1.000000000000000000, #73 ) ;
#8 = CC_DESIGN_DATE_AND_TIME_ASSIGNMENT ( #265, #142, ( #297 ) ) ;
#9 = APPROVAL_DATE_TIME ( #218, #147 ) ;
#10 = PERSON_AND_ORGANIZATION_ROLE ( 'creator' ) ;
#11 = DIRECTION ( 'NONE',  ( 0.000000000000000000, 0.000000000000000000, 1.000000000000000000 ) ) ;
#12 = CLOSED_SHELL ( 'NONE', ( #112, #203, #99, #172, #157, #68, #144, #301, #167 ) ) ;
#13 = CARTESIAN_POINT ( 'NONE',  ( 2.700000000000000178, 0.000000000000000000, 2.999999999999990674 ) ) ;
#14 = VERTEX_POINT ( 'NONE', #38 ) ;
#15 = APPROVAL_STATUS ( 'not_yet_approved' ) ;
#16 = EDGE_LOOP ( 'NONE', ( #186, #6, #28, #202 ) ) ;
#17 = ORIENTED_EDGE ( 'NONE', *, *, #137, .T. ) ;
#18 = DIRECTION ( 'NONE',  ( 1.000000000000000000, 0.000000000000000000, 0.000000000000000000 ) ) ;
#19 = FACE_OUTER_BOUND ( 'NONE', #34, .T. ) ;
#20 = DIRECTION ( 'NONE',  ( 0.000000000000000000, 0.000000000000000000, 1.000000000000000000 ) ) ;
#21 = CC_DESIGN_PERSON_AND_ORGANIZATION_ASSIGNMENT ( #239, #236, ( #297 ) ) ;
#22 = CYLINDRICAL_SURFACE ( 'NONE', #113, 2.500000000000000000 ) ;
#23 = CARTESIAN_POINT ( 'NONE',  ( 0.000000000000000000, 0.000000000000000000, 3.199999999999980638 ) ) ;
#24 = CARTESIAN_POINT ( 'NONE',  ( -2.500000000000000000, 0.000000000000000000, 503.0000000000000000 ) ) ;
#25 = AXIS2_PLACEMENT_3D ( 'NONE', #231, #90, #305 ) ;
#26 = DATE_AND_TIME ( #48, #246 ) ;
#27 = ORIENTED_EDGE ( 'NONE', *, *, #255, .T. ) ;
#28 = ORIENTED_EDGE ( 'NONE', *, *, #3, .T. ) ;
#29 = DATE_AND_TIME ( #143, #30 ) ;
#30 = LOCAL_TIME ( 14, 46, 1.000000000000000000, #266 ) ;
#31 = DIRECTION ( 'NONE',  ( 1.000000000000000000, 0.000000000000000000, 0.000000000000000000 ) ) ;
#32 = AXIS2_PLACEMENT_3D ( 'NONE', #116, #208, #302 ) ;
#33 = CARTESIAN_POINT ( 'NONE',  ( 0.000000000000000000, 0.000000000000000000, 0.000000000000000000 ) ) ;
#34 = EDGE_LOOP ( 'NONE', ( #107, #200, #164, #120 ) ) ;
#35 =( NAMED_UNIT ( * ) SI_UNIT ( $, .STERADIAN. ) SOLID_ANGLE_UNIT ( ) );
#36 = CARTESIAN_POINT ( 'NONE',  ( 0.000000000000000000, 0.000000000000000000, 3.199999999999980638 ) ) ;
#37 = PRODUCT_RELATED_PRODUCT_CATEGORY ( 'detail', '', ( #47 ) ) ;
#38 = CARTESIAN_POINT ( 'NONE',  ( 2.500000000000000000, 3.061616997868383141E-16, 3.199999999999980638 ) ) ;
#39 = DIRECTION ( 'NONE',  ( -0.000000000000000000, -0.000000000000000000, -1.000000000000000000 ) ) ;
#40 = DIRECTION ( 'NONE',  ( 1.000000000000000000, 0.000000000000000000, 0.000000000000000000 ) ) ;
#41 = FACE_OUTER_BOUND ( 'NONE', #122, .T. ) ;
#42 = VECTOR ( 'NONE', #102, 1000.000000000000000 ) ;
#43 = MANIFOLD_SOLID_BREP ( 'Zaoblit1', #12 ) ;
#44 = DIRECTION ( 'NONE',  ( 1.000000000000000000, 0.000000000000000000, 0.000000000000000000 ) ) ;
#45 = PRODUCT_DEFINITION_FORMATION_WITH_SPECIFIED_SOURCE ( 'LIBOVOLNÝ', '', #47, .NOT_KNOWN. ) ;
#46 = DIRECTION ( 'NONE',  ( 1.000000000000000000, 0.000000000000000000, 0.000000000000000000 ) ) ;
#47 = PRODUCT ( 'f1c2', 'f1c2', '', ( #292 ) ) ;
#48 = CALENDAR_DATE ( 2022, 7, 7 ) ;
#49 = CC_DESIGN_PERSON_AND_ORGANIZATION_ASSIGNMENT ( #50, #10, ( #45 ) ) ;
#50 = PERSON_AND_ORGANIZATION ( #179, #134 ) ;
#51 = AXIS2_PLACEMENT_3D ( 'NONE', #254, #115, #183 ) ;
#52 = COORDINATED_UNIVERSAL_TIME_OFFSET ( 1, 0, .AHEAD. ) ;
#53 = APPLICATION_PROTOCOL_DEFINITION ( 'international standard', 'config_control_design', 1994, #161 ) ;
#54 = AXIS2_PLACEMENT_3D ( 'NONE', #194, #299, #40 ) ;
#55 = EDGE_CURVE ( 'NONE', #204, #212, #197, .T. ) ;
#56 = DIRECTION ( 'NONE',  ( -0.000000000000000000, -0.000000000000000000, -1.000000000000000000 ) ) ;
#57 = DIRECTION ( 'NONE',  ( 0.000000000000000000, 0.000000000000000000, 1.000000000000000000 ) ) ;
#58 = VERTEX_POINT ( 'NONE', #249 ) ;
#59 = DIRECTION ( 'NONE',  ( 0.000000000000000000, 0.000000000000000000, 1.000000000000000000 ) ) ;
#60 = CARTESIAN_POINT ( 'NONE',  ( -2.500000000000000000, 0.000000000000000000, 503.0000000000000000 ) ) ;
#61 = DIRECTION ( 'NONE',  ( 0.000000000000000000, 0.000000000000000000, 1.000000000000000000 ) ) ;
#62 = DIRECTION ( 'NONE',  ( 1.000000000000000000, 0.000000000000000000, -0.000000000000000000 ) ) ;
#63 = CARTESIAN_POINT ( 'NONE',  ( 0.000000000000000000, 0.000000000000000000, 3.000000000000000000 ) ) ;
#64 = VECTOR ( 'NONE', #66, 1000.000000000000000 ) ;
#65 = ORIENTED_EDGE ( 'NONE', *, *, #225, .T. ) ;
#66 = DIRECTION ( 'NONE',  ( -0.000000000000000000, -0.000000000000000000, -1.000000000000000000 ) ) ;
#67 = PRODUCT_DEFINITION_SHAPE ( 'NONE', 'NONE',  #297 ) ;
#68 = ADVANCED_FACE ( 'NONE', ( #83 ), #175, .F. ) ;
#69 = CALENDAR_DATE ( 2022, 7, 7 ) ;
#70 = EDGE_LOOP ( 'NONE', ( #253, #150, #173, #82 ) ) ;
#71 = CALENDAR_DATE ( 2022, 7, 7 ) ;
#72 = AXIS2_PLACEMENT_3D ( 'NONE', #162, #61, #46 ) ;
#73 = COORDINATED_UNIVERSAL_TIME_OFFSET ( 1, 0, .AHEAD. ) ;
#74 = AXIS2_PLACEMENT_3D ( 'NONE', #126, #219, #222 ) ;
#75 = EDGE_CURVE ( 'NONE', #94, #238, #146, .T. ) ;
#76 = PLANE ( 'NONE',  #206 ) ;
#77 = EDGE_LOOP ( 'NONE', ( #272, #259 ) ) ;
#78 = APPLICATION_PROTOCOL_DEFINITION ( 'international standard', 'config_control_design', 1994, #176 ) ;
#79 = AXIS2_PLACEMENT_3D ( 'NONE', #85, #56, #109 ) ;
#80 = EDGE_LOOP ( 'NONE', ( #166, #221 ) ) ;
#81 = DIRECTION ( 'NONE',  ( 0.000000000000000000, 0.000000000000000000, 1.000000000000000000 ) ) ;
#82 = ORIENTED_EDGE ( 'NONE', *, *, #75, .F. ) ;
#83 = FACE_OUTER_BOUND ( 'NONE', #276, .T. ) ;
#84 = EDGE_CURVE ( 'NONE', #296, #141, #118, .T. ) ;
#85 = CARTESIAN_POINT ( 'NONE',  ( 0.000000000000000000, 0.000000000000000000, 3.000000000000000000 ) ) ;
#86 = AXIS2_PLACEMENT_3D ( 'NONE', #160, #258, #306 ) ;
#87 = CC_DESIGN_APPROVAL ( #147, ( #191 ) ) ;
#88 = CARTESIAN_POINT ( 'NONE',  ( 0.000000000000000000, 0.000000000000000000, 3.199999999999980638 ) ) ;
#89 = EDGE_CURVE ( 'NONE', #141, #58, #108, .T. ) ;
#90 = DIRECTION ( 'NONE',  ( 0.000000000000000000, 0.000000000000000000, 1.000000000000000000 ) ) ;
#91 = CARTESIAN_POINT ( 'NONE',  ( 0.000000000000000000, 0.000000000000000000, 503.0000000000000000 ) ) ;
#92 = FACE_OUTER_BOUND ( 'NONE', #16, .T. ) ;
#93 = ORIENTED_EDGE ( 'NONE', *, *, #283, .F. ) ;
#94 = VERTEX_POINT ( 'NONE', #226 ) ;
#95 = PERSON_AND_ORGANIZATION ( #179, #134 ) ;
#96 = APPROVAL_PERSON_ORGANIZATION ( #190, #103, #5 ) ;
#97 = EDGE_CURVE ( 'NONE', #300, #58, #290, .T. ) ;
#98 = PERSON_AND_ORGANIZATION_ROLE ( 'design_supplier' ) ;
#99 = ADVANCED_FACE ( 'NONE', ( #19 ), #105, .T. ) ;
#100 = EDGE_CURVE ( 'NONE', #212, #247, #178, .T. ) ;
#101 = CARTESIAN_POINT ( 'NONE',  ( -5.000000000000000000, 0.000000000000000000, 3.000000000000000000 ) ) ;
#102 = DIRECTION ( 'NONE',  ( -0.000000000000000000, -0.000000000000000000, -1.000000000000000000 ) ) ;
#103 = APPROVAL ( #187, 'NEURÈENÝ' ) ;
#104 = PERSON_AND_ORGANIZATION ( #179, #134 ) ;
#105 = CYLINDRICAL_SURFACE ( 'NONE', #79, 5.000000000000000000 ) ;
#106 = CARTESIAN_POINT ( 'NONE',  ( -2.700000000000000178, 3.306546357697853733E-16, 3.199999999999980638 ) ) ;
#107 = ORIENTED_EDGE ( 'NONE', *, *, #181, .F. ) ;
#108 = LINE ( 'NONE', #131, #251 ) ;
#109 = DIRECTION ( 'NONE',  ( -1.000000000000000000, 0.000000000000000000, 0.000000000000000000 ) ) ;
#110 = UNCERTAINTY_MEASURE_WITH_UNIT (LENGTH_MEASURE( 1.000000000000000082E-05 ), #171, 'distance_accuracy_value', 'NONE');
#111 = DIRECTION ( 'NONE',  ( 0.000000000000000000, 0.000000000000000000, 1.000000000000000000 ) ) ;
#112 = ADVANCED_FACE ( 'NONE', ( #295 ), #256, .F. ) ;
#113 = AXIS2_PLACEMENT_3D ( 'NONE', #91, #182, #140 ) ;
#114 = AXIS2_PLACEMENT_3D ( 'NONE', #148, #244, #294 ) ;
#115 = DIRECTION ( 'NONE',  ( 0.000000000000000000, 0.000000000000000000, 1.000000000000000000 ) ) ;
#116 = CARTESIAN_POINT ( 'NONE',  ( 0.000000000000000000, 0.000000000000000000, 503.0000000000000000 ) ) ;
#117 = LINE ( 'NONE', #282, #64 ) ;
#118 = CIRCLE ( 'NONE', #132, 5.000000000000000000 ) ;
#119 = AXIS2_PLACEMENT_3D ( 'NONE', #63, #20, #62 ) ;
#120 = ORIENTED_EDGE ( 'NONE', *, *, #137, .F. ) ;
#121 = AXIS2_PLACEMENT_3D ( 'NONE', #23, #111, #44 ) ;
#122 = EDGE_LOOP ( 'NONE', ( #177, #298, #285, #65 ) ) ;
#123 = EDGE_CURVE ( 'NONE', #212, #204, #184, .T. ) ;
#124 = APPROVAL_STATUS ( 'not_yet_approved' ) ;
#125 = PERSON_AND_ORGANIZATION ( #179, #134 ) ;
#126 = CARTESIAN_POINT ( 'NONE',  ( 0.000000000000000000, 0.000000000000000000, 3.000000000000000000 ) ) ;
#127 = CIRCLE ( 'NONE', #72, 5.000000000000000000 ) ;
#128 = CIRCLE ( 'NONE', #263, 5.000000000000000000 ) ;
#129 = DIRECTION ( 'NONE',  ( 0.000000000000000000, 0.000000000000000000, 1.000000000000000000 ) ) ;
#130 = DIRECTION ( 'NONE',  ( 1.224646799147353207E-16, 1.000000000000000000, -0.000000000000000000 ) ) ;
#131 = CARTESIAN_POINT ( 'NONE',  ( 5.000000000000000000, 6.123233995736766282E-16, 3.000000000000000000 ) ) ;
#132 = AXIS2_PLACEMENT_3D ( 'NONE', #156, #129, #18 ) ;
#133 = DIRECTION ( 'NONE',  ( 1.000000000000000000, 0.000000000000000000, -0.000000000000000000 ) ) ;
#134 = ORGANIZATION ( 'NEURÈENÝ', 'NEURÈENÝ', '' ) ;
#135 = CARTESIAN_POINT ( 'NONE',  ( 0.000000000000000000, 0.000000000000000000, 0.000000000000000000 ) ) ;
#136 = LINE ( 'NONE', #257, #262 ) ;
#137 = EDGE_CURVE ( 'NONE', #296, #300, #136, .T. ) ;
#138 = DESIGN_CONTEXT ( 'detailed design', #176, 'design' ) ;
#139 = DIRECTION ( 'NONE',  ( -0.000000000000000000, -0.000000000000000000, -1.000000000000000000 ) ) ;
#140 = DIRECTION ( 'NONE',  ( -1.000000000000000000, 0.000000000000000000, 0.000000000000000000 ) ) ;
#141 = VERTEX_POINT ( 'NONE', #233 ) ;
#142 = DATE_TIME_ROLE ( 'creation_date' ) ;
#143 = CALENDAR_DATE ( 2022, 7, 7 ) ;
#144 = ADVANCED_FACE ( 'NONE', ( #41 ), #281, .T. ) ;
#145 = COORDINATED_UNIVERSAL_TIME_OFFSET ( 1, 0, .AHEAD. ) ;
#146 = CIRCLE ( 'NONE', #54, 2.700000000000000178 ) ;
#147 = APPROVAL ( #124, 'NEURÈENÝ' ) ;
#148 = CARTESIAN_POINT ( 'NONE',  ( 0.000000000000000000, 0.000000000000000000, 0.000000000000000000 ) ) ;
#149 = PERSON_AND_ORGANIZATION ( #179, #134 ) ;
#150 = ORIENTED_EDGE ( 'NONE', *, *, #3, .F. ) ;
#151 = CIRCLE ( 'NONE', #74, 2.700000000000000178 ) ;
#152 = AXIS2_PLACEMENT_3D ( 'NONE', #106, #130, #273 ) ;
#153 = DIRECTION ( 'NONE',  ( 1.000000000000000000, 0.000000000000000000, 0.000000000000000000 ) ) ;
#154 = CARTESIAN_POINT ( 'NONE',  ( -2.500000000000000000, 0.000000000000000000, 3.199999999999980638 ) ) ;
#155 = ORIENTED_EDGE ( 'NONE', *, *, #97, .F. ) ;
#156 = CARTESIAN_POINT ( 'NONE',  ( 0.000000000000000000, 0.000000000000000000, 3.000000000000000000 ) ) ;
#157 = ADVANCED_FACE ( 'NONE', ( #209, #229 ), #205, .T. ) ;
#158 = ORIENTED_EDGE ( 'NONE', *, *, #97, .T. ) ;
#159 = CYLINDRICAL_SURFACE ( 'NONE', #86, 5.000000000000000000 ) ;
#160 = CARTESIAN_POINT ( 'NONE',  ( 0.000000000000000000, 0.000000000000000000, 3.000000000000000000 ) ) ;
#161 = APPLICATION_CONTEXT ( 'configuration controlled 3d designs of mechanical parts and assemblies' ) ;
#162 = CARTESIAN_POINT ( 'NONE',  ( 0.000000000000000000, 0.000000000000000000, 3.000000000000000000 ) ) ;
#163 = EDGE_CURVE ( 'NONE', #14, #238, #192, .T. ) ;
#164 = ORIENTED_EDGE ( 'NONE', *, *, #283, .T. ) ;
#165 = APPROVAL_ROLE ( '' ) ;
#166 = ORIENTED_EDGE ( 'NONE', *, *, #227, .T. ) ;
#167 = ADVANCED_FACE ( 'NONE', ( #279 ), #220, .F. ) ;
#168 = PERSON_AND_ORGANIZATION_ROLE ( 'classification_officer' ) ;
#169 = DIRECTION ( 'NONE',  ( 0.000000000000000000, 0.000000000000000000, 1.000000000000000000 ) ) ;
#170 = EDGE_LOOP ( 'NONE', ( #1, #289 ) ) ;
#171 =( LENGTH_UNIT ( ) NAMED_UNIT ( * ) SI_UNIT ( .MILLI., .METRE. ) );
#172 = ADVANCED_FACE ( 'NONE', ( #180 ), #159, .T. ) ;
#173 = ORIENTED_EDGE ( 'NONE', *, *, #163, .T. ) ;
#174 = CC_DESIGN_APPROVAL ( #240, ( #297 ) ) ;
#175 = PLANE ( 'NONE',  #280 ) ;
#176 = APPLICATION_CONTEXT ( 'configuration controlled 3d designs of mechanical parts and assemblies' ) ;
#177 = ORIENTED_EDGE ( 'NONE', *, *, #215, .F. ) ;
#178 = LINE ( 'NONE', #60, #42 ) ;
#179 = PERSON ( 'NEURÈENÝ', 'NEURÈENÝ', 'NEURÈENÝ', ('NEURÈENÝ'), ('NEURÈENÝ'), ('NEURÈENÝ') ) ;
#180 = FACE_OUTER_BOUND ( 'NONE', #237, .T. ) ;
#181 = EDGE_CURVE ( 'NONE', #141, #296, #127, .T. ) ;
#182 = DIRECTION ( 'NONE',  ( -0.000000000000000000, -0.000000000000000000, -1.000000000000000000 ) ) ;
#183 = DIRECTION ( 'NONE',  ( 1.000000000000000000, 0.000000000000000000, 0.000000000000000000 ) ) ;
#184 = CIRCLE ( 'NONE', #51, 2.500000000000000000 ) ;
#185 = DIRECTION ( 'NONE',  ( 0.000000000000000000, 0.000000000000000000, -1.000000000000000000 ) ) ;
#186 = ORIENTED_EDGE ( 'NONE', *, *, #55, .F. ) ;
#187 = APPROVAL_STATUS ( 'not_yet_approved' ) ;
#188 = CIRCLE ( 'NONE', #267, 2.500000000000000000 ) ;
#189 = CC_DESIGN_PERSON_AND_ORGANIZATION_ASSIGNMENT ( #264, #168, ( #191 ) ) ;
#190 = PERSON_AND_ORGANIZATION ( #179, #134 ) ;
#191 = SECURITY_CLASSIFICATION ( '', '', #288 ) ;
#192 = CIRCLE ( 'NONE', #291, 0.2000000000000000944 ) ;
#193 = DIRECTION ( 'NONE',  ( 1.000000000000000000, 0.000000000000000000, -0.000000000000000000 ) ) ;
#194 = CARTESIAN_POINT ( 'NONE',  ( 0.000000000000000000, 0.000000000000000000, 3.000000000000000000 ) ) ;
#195 = FACE_OUTER_BOUND ( 'NONE', #170, .T. ) ;
#196 = DIRECTION ( 'NONE',  ( 1.000000000000000000, 0.000000000000000000, 0.000000000000000000 ) ) ;
#197 = CIRCLE ( 'NONE', #4, 2.500000000000000000 ) ;
#198 =( NAMED_UNIT ( * ) PLANE_ANGLE_UNIT ( ) SI_UNIT ( $, .RADIAN. ) );
#199 = CC_DESIGN_DATE_AND_TIME_ASSIGNMENT ( #29, #284, ( #191 ) ) ;
#200 = ORIENTED_EDGE ( 'NONE', *, *, #89, .T. ) ;
#201 = APPROVAL_PERSON_ORGANIZATION ( #95, #147, #217 ) ;
#202 = ORIENTED_EDGE ( 'NONE', *, *, #100, .F. ) ;
#203 = ADVANCED_FACE ( 'NONE', ( #92 ), #22, .T. ) ;
#204 = VERTEX_POINT ( 'NONE', #234 ) ;
#205 = PLANE ( 'NONE',  #119 ) ;
#206 = AXIS2_PLACEMENT_3D ( 'NONE', #248, #81, #193 ) ;
#207 = ADVANCED_BREP_SHAPE_REPRESENTATION ( 'f1c2', ( #43, #114 ), #269 ) ;
#208 = DIRECTION ( 'NONE',  ( -0.000000000000000000, -0.000000000000000000, -1.000000000000000000 ) ) ;
#209 = FACE_BOUND ( 'NONE', #80, .T. ) ;
#210 = CARTESIAN_POINT ( 'NONE',  ( 2.700000000000000178, 0.000000000000000000, 3.199999999999980638 ) ) ;
#211 = LOCAL_TIME ( 14, 46, 1.000000000000000000, #52 ) ;
#212 = VERTEX_POINT ( 'NONE', #24 ) ;
#213 = ORIENTED_EDGE ( 'NONE', *, *, #163, .F. ) ;
#214 = COORDINATED_UNIVERSAL_TIME_OFFSET ( 1, 0, .AHEAD. ) ;
#215 = EDGE_CURVE ( 'NONE', #204, #14, #117, .T. ) ;
#216 = ORIENTED_EDGE ( 'NONE', *, *, #225, .F. ) ;
#217 = APPROVAL_ROLE ( '' ) ;
#218 = DATE_AND_TIME ( #69, #7 ) ;
#219 = DIRECTION ( 'NONE',  ( -0.000000000000000000, -0.000000000000000000, -1.000000000000000000 ) ) ;
#220 = TOROIDAL_SURFACE ( 'NONE', #25, 2.700000000000000178, 0.2000000000000000111 ) ;
#221 = ORIENTED_EDGE ( 'NONE', *, *, #75, .T. ) ;
#222 = DIRECTION ( 'NONE',  ( 1.000000000000000000, 0.000000000000000000, 0.000000000000000000 ) ) ;
#223 = DIRECTION ( 'NONE',  ( 1.000000000000000000, 0.000000000000000000, 0.000000000000000000 ) ) ;
#224 = CARTESIAN_POINT ( 'NONE',  ( 0.000000000000000000, 0.000000000000000000, 0.000000000000000000 ) ) ;
#225 = EDGE_CURVE ( 'NONE', #247, #14, #241, .T. ) ;
#226 = CARTESIAN_POINT ( 'NONE',  ( -2.700000000000000178, 3.306546357697853733E-16, 2.999999999999990674 ) ) ;
#227 = EDGE_CURVE ( 'NONE', #238, #94, #151, .T. ) ;
#228 = DIRECTION ( 'NONE',  ( 0.000000000000000000, 0.000000000000000000, 1.000000000000000000 ) ) ;
#229 = FACE_OUTER_BOUND ( 'NONE', #77, .T. ) ;
#230 = AXIS2_PLACEMENT_3D ( 'NONE', #135, #228, #223 ) ;
#231 = CARTESIAN_POINT ( 'NONE',  ( 0.000000000000000000, 0.000000000000000000, 3.199999999999980638 ) ) ;
#232 = CC_DESIGN_PERSON_AND_ORGANIZATION_ASSIGNMENT ( #104, #270, ( #47 ) ) ;
#233 = CARTESIAN_POINT ( 'NONE',  ( 5.000000000000000000, 6.123233995736766282E-16, 3.000000000000000000 ) ) ;
#234 = CARTESIAN_POINT ( 'NONE',  ( 2.500000000000000000, 3.061616997868383141E-16, 503.0000000000000000 ) ) ;
#235 = CIRCLE ( 'NONE', #152, 0.2000000000000000944 ) ;
#236 = PERSON_AND_ORGANIZATION_ROLE ( 'creator' ) ;
#237 = EDGE_LOOP ( 'NONE', ( #278, #252, #17, #158 ) ) ;
#238 = VERTEX_POINT ( 'NONE', #13 ) ;
#239 = PERSON_AND_ORGANIZATION ( #179, #134 ) ;
#240 = APPROVAL ( #15, 'NEURÈENÝ' ) ;
#241 = CIRCLE ( 'NONE', #286, 2.500000000000000000 ) ;
#242 = APPROVAL_DATE_TIME ( #268, #103 ) ;
#243 = APPROVAL_DATE_TIME ( #26, #240 ) ;
#244 = DIRECTION ( 'NONE',  ( 0.000000000000000000, 0.000000000000000000, 1.000000000000000000 ) ) ;
#245 = DIRECTION ( 'NONE',  ( 1.000000000000000000, 0.000000000000000000, 0.000000000000000000 ) ) ;
#246 = LOCAL_TIME ( 14, 46, 1.000000000000000000, #145 ) ;
#247 = VERTEX_POINT ( 'NONE', #154 ) ;
#248 = CARTESIAN_POINT ( 'NONE',  ( 0.000000000000000000, 0.000000000000000000, 503.0000000000000000 ) ) ;
#249 = CARTESIAN_POINT ( 'NONE',  ( 5.000000000000000000, 6.123233995736766282E-16, 0.000000000000000000 ) ) ;
#250 = EDGE_LOOP ( 'NONE', ( #216, #27, #261, #213 ) ) ;
#251 = VECTOR ( 'NONE', #39, 1000.000000000000000 ) ;
#252 = ORIENTED_EDGE ( 'NONE', *, *, #84, .F. ) ;
#253 = ORIENTED_EDGE ( 'NONE', *, *, #255, .F. ) ;
#254 = CARTESIAN_POINT ( 'NONE',  ( 0.000000000000000000, 0.000000000000000000, 503.0000000000000000 ) ) ;
#255 = EDGE_CURVE ( 'NONE', #247, #94, #235, .T. ) ;
#256 = TOROIDAL_SURFACE ( 'NONE', #121, 2.700000000000000178, 0.2000000000000000111 ) ;
#257 = CARTESIAN_POINT ( 'NONE',  ( -5.000000000000000000, 0.000000000000000000, 3.000000000000000000 ) ) ;
#258 = DIRECTION ( 'NONE',  ( -0.000000000000000000, -0.000000000000000000, -1.000000000000000000 ) ) ;
#259 = ORIENTED_EDGE ( 'NONE', *, *, #181, .T. ) ;
#260 = SHAPE_DEFINITION_REPRESENTATION ( #67, #207 ) ;
#261 = ORIENTED_EDGE ( 'NONE', *, *, #227, .F. ) ;
#262 = VECTOR ( 'NONE', #139, 1000.000000000000000 ) ;
#263 = AXIS2_PLACEMENT_3D ( 'NONE', #33, #11, #245 ) ;
#264 = PERSON_AND_ORGANIZATION ( #179, #134 ) ;
#265 = DATE_AND_TIME ( #2, #303 ) ;
#266 = COORDINATED_UNIVERSAL_TIME_OFFSET ( 1, 0, .AHEAD. ) ;
#267 = AXIS2_PLACEMENT_3D ( 'NONE', #36, #277, #196 ) ;
#268 = DATE_AND_TIME ( #71, #211 ) ;
#269 =( GEOMETRIC_REPRESENTATION_CONTEXT ( 3 ) GLOBAL_UNCERTAINTY_ASSIGNED_CONTEXT ( ( #110 ) ) GLOBAL_UNIT_ASSIGNED_CONTEXT ( ( #171, #198, #35 ) ) REPRESENTATION_CONTEXT ( 'NONE', 'WORKASPACE' ) );
#270 = PERSON_AND_ORGANIZATION_ROLE ( 'design_owner' ) ;
#271 = CARTESIAN_POINT ( 'NONE',  ( -5.000000000000000000, 0.000000000000000000, 0.000000000000000000 ) ) ;
#272 = ORIENTED_EDGE ( 'NONE', *, *, #84, .T. ) ;
#273 = DIRECTION ( 'NONE',  ( -1.000000000000000000, 1.224646799147353207E-16, 0.000000000000000000 ) ) ;
#274 = CC_DESIGN_SECURITY_CLASSIFICATION ( #191, ( #45 ) ) ;
#275 = CARTESIAN_POINT ( 'NONE',  ( 0.000000000000000000, 0.000000000000000000, 503.0000000000000000 ) ) ;
#276 = EDGE_LOOP ( 'NONE', ( #155, #93 ) ) ;
#277 = DIRECTION ( 'NONE',  ( 0.000000000000000000, 0.000000000000000000, 1.000000000000000000 ) ) ;
#278 = ORIENTED_EDGE ( 'NONE', *, *, #89, .F. ) ;
#279 = FACE_OUTER_BOUND ( 'NONE', #70, .T. ) ;
#280 = AXIS2_PLACEMENT_3D ( 'NONE', #224, #59, #133 ) ;
#281 = CYLINDRICAL_SURFACE ( 'NONE', #32, 2.500000000000000000 ) ;
#282 = CARTESIAN_POINT ( 'NONE',  ( 2.500000000000000000, 3.061616997868383141E-16, 503.0000000000000000 ) ) ;
#283 = EDGE_CURVE ( 'NONE', #58, #300, #128, .T. ) ;
#284 = DATE_TIME_ROLE ( 'classification_date' ) ;
#285 = ORIENTED_EDGE ( 'NONE', *, *, #100, .T. ) ;
#286 = AXIS2_PLACEMENT_3D ( 'NONE', #88, #169, #31 ) ;
#287 = APPROVAL_PERSON_ORGANIZATION ( #149, #240, #165 ) ;
#288 = SECURITY_CLASSIFICATION_LEVEL ( 'unclassified' ) ;
#289 = ORIENTED_EDGE ( 'NONE', *, *, #55, .T. ) ;
#290 = CIRCLE ( 'NONE', #230, 5.000000000000000000 ) ;
#291 = AXIS2_PLACEMENT_3D ( 'NONE', #210, #307, #185 ) ;
#292 = MECHANICAL_CONTEXT ( 'NONE', #161, 'mechanical' ) ;
#293 = CC_DESIGN_APPROVAL ( #103, ( #45 ) ) ;
#294 = DIRECTION ( 'NONE',  ( 1.000000000000000000, 0.000000000000000000, 0.000000000000000000 ) ) ;
#295 = FACE_OUTER_BOUND ( 'NONE', #250, .T. ) ;
#296 = VERTEX_POINT ( 'NONE', #101 ) ;
#297 = PRODUCT_DEFINITION ( 'NEZNÁMÝ', '', #45, #138 ) ;
#298 = ORIENTED_EDGE ( 'NONE', *, *, #123, .F. ) ;
#299 = DIRECTION ( 'NONE',  ( -0.000000000000000000, -0.000000000000000000, -1.000000000000000000 ) ) ;
#300 = VERTEX_POINT ( 'NONE', #271 ) ;
#301 = ADVANCED_FACE ( 'NONE', ( #195 ), #76, .T. ) ;
#302 = DIRECTION ( 'NONE',  ( -1.000000000000000000, 0.000000000000000000, 0.000000000000000000 ) ) ;
#303 = LOCAL_TIME ( 14, 46, 1.000000000000000000, #214 ) ;
#304 = CC_DESIGN_PERSON_AND_ORGANIZATION_ASSIGNMENT ( #125, #98, ( #45 ) ) ;
#305 = DIRECTION ( 'NONE',  ( 1.000000000000000000, 0.000000000000000000, 0.000000000000000000 ) ) ;
#306 = DIRECTION ( 'NONE',  ( -1.000000000000000000, 0.000000000000000000, 0.000000000000000000 ) ) ;
#307 = DIRECTION ( 'NONE',  ( 0.000000000000000000, -1.000000000000000000, 0.000000000000000000 ) ) ;
ENDSEC;
END-ISO-10303-21;
