ISO-10303-21;
HEADER;
FILE_DESCRIPTION (( 'STEP AP203' ),
    '1' );
FILE_NAME ('9dd1.STEP',
    '2023-02-12T11:30:08',
    ( '' ),
    ( '' ),
    'SwSTEP 2.0',
    'SolidWorks 2019',
    '' );
FILE_SCHEMA (( 'CONFIG_CONTROL_DESIGN' ));
ENDSEC;

DATA;
#1 = VERTEX_POINT ( 'NONE', #135 ) ;
#2 = CIRCLE ( 'NONE', #15, 6.000000000000000888 ) ;
#3 = CALENDAR_DATE ( 2023, 12, 2 ) ;
#4 = CC_DESIGN_PERSON_AND_ORGANIZATION_ASSIGNMENT ( #181, #41, ( #131 ) ) ;
#5 = PLANE ( 'NONE',  #222 ) ;
#6 = DIRECTION ( 'NONE',  ( 1.000000000000000000, 0.000000000000000000, -0.000000000000000000 ) ) ;
#7 = CIRCLE ( 'NONE', #20, 3.500000000000000000 ) ;
#8 = APPROVAL_ROLE ( '' ) ;
#9 = MANIFOLD_SOLID_BREP ( 'Pøidat vysunutím3', #136 ) ;
#10 = AXIS2_PLACEMENT_3D ( 'NONE', #114, #94, #96 ) ;
#11 = CARTESIAN_POINT ( 'NONE',  ( 3.500000000000000000, 4.286263797015736595E-16, 100.0000000000000000 ) ) ;
#12 = EDGE_CURVE ( 'NONE', #75, #190, #154, .T. ) ;
#13 = CARTESIAN_POINT ( 'NONE',  ( 0.000000000000000000, 0.000000000000000000, 5.000000000000000000 ) ) ;
#14 = CARTESIAN_POINT ( 'NONE',  ( 0.000000000000000000, 0.000000000000000000, 100.0000000000000000 ) ) ;
#15 = AXIS2_PLACEMENT_3D ( 'NONE', #70, #147, #226 ) ;
#16 = CC_DESIGN_SECURITY_CLASSIFICATION ( #199, ( #131 ) ) ;
#17 = EDGE_LOOP ( 'NONE', ( #19, #210, #253, #52 ) ) ;
#18 = CARTESIAN_POINT ( 'NONE',  ( 3.500000000000000000, 4.286263797015736595E-16, 5.000000000000000000 ) ) ;
#19 = ORIENTED_EDGE ( 'NONE', *, *, #220, .F. ) ;
#20 = AXIS2_PLACEMENT_3D ( 'NONE', #60, #107, #236 ) ;
#21 = EDGE_LOOP ( 'NONE', ( #229, #101 ) ) ;
#22 = ORIENTED_EDGE ( 'NONE', *, *, #191, .T. ) ;
#23 = CARTESIAN_POINT ( 'NONE',  ( 6.000000000000000888, 7.347880794884120722E-16, 5.000000000000000000 ) ) ;
#24 = PERSON_AND_ORGANIZATION_ROLE ( 'classification_officer' ) ;
#25 = DIRECTION ( 'NONE',  ( 1.000000000000000000, 0.000000000000000000, 0.000000000000000000 ) ) ;
#26 = CARTESIAN_POINT ( 'NONE',  ( -6.000000000000000888, 0.000000000000000000, 5.000000000000000000 ) ) ;
#27 = DATE_TIME_ROLE ( 'classification_date' ) ;
#28 = CIRCLE ( 'NONE', #203, 6.000000000000000888 ) ;
#29 = DIRECTION ( 'NONE',  ( -1.000000000000000000, 0.000000000000000000, 0.000000000000000000 ) ) ;
#30 = AXIS2_PLACEMENT_3D ( 'NONE', #165, #69, #25 ) ;
#31 = CC_DESIGN_APPROVAL ( #173, ( #158 ) ) ;
#32 = DIRECTION ( 'NONE',  ( 0.000000000000000000, 0.000000000000000000, 1.000000000000000000 ) ) ;
#33 = DIRECTION ( 'NONE',  ( -0.000000000000000000, -0.000000000000000000, -1.000000000000000000 ) ) ;
#34 = VERTEX_POINT ( 'NONE', #26 ) ;
#35 = CC_DESIGN_DATE_AND_TIME_ASSIGNMENT ( #64, #27, ( #199 ) ) ;
#36 = CIRCLE ( 'NONE', #81, 3.500000000000000000 ) ;
#37 = ORIENTED_EDGE ( 'NONE', *, *, #182, .F. ) ;
#38 = ORIENTED_EDGE ( 'NONE', *, *, #111, .F. ) ;
#39 = APPROVAL ( #162, 'NEURÈENÝ' ) ;
#40 = CARTESIAN_POINT ( 'NONE',  ( 0.000000000000000000, 0.000000000000000000, 5.000000000000000000 ) ) ;
#41 = PERSON_AND_ORGANIZATION_ROLE ( 'creator' ) ;
#42 = LOCAL_TIME ( 12, 30, 8.000000000000000000, #65 ) ;
#43 = PERSON_AND_ORGANIZATION ( #80, #128 ) ;
#44 = DATE_TIME_ROLE ( 'creation_date' ) ;
#45 = PRODUCT ( '9dd1', '9dd1', '', ( #97 ) ) ;
#46 = CARTESIAN_POINT ( 'NONE',  ( -3.500000000000000000, 0.000000000000000000, 5.000000000000000000 ) ) ;
#47 = LOCAL_TIME ( 12, 30, 8.000000000000000000, #59 ) ;
#48 = EDGE_CURVE ( 'NONE', #157, #99, #28, .T. ) ;
#49 = CARTESIAN_POINT ( 'NONE',  ( 0.000000000000000000, 0.000000000000000000, 0.000000000000000000 ) ) ;
#50 = AXIS2_PLACEMENT_3D ( 'NONE', #168, #243, #73 ) ;
#51 = FACE_BOUND ( 'NONE', #193, .T. ) ;
#52 = ORIENTED_EDGE ( 'NONE', *, *, #230, .F. ) ;
#53 = CARTESIAN_POINT ( 'NONE',  ( 6.000000000000000888, 7.347880794884120722E-16, 0.000000000000000000 ) ) ;
#54 = EDGE_CURVE ( 'NONE', #34, #99, #142, .T. ) ;
#55 = ORIENTED_EDGE ( 'NONE', *, *, #230, .T. ) ;
#56 = APPROVAL_STATUS ( 'not_yet_approved' ) ;
#57 = EDGE_LOOP ( 'NONE', ( #127, #192 ) ) ;
#58 = DIRECTION ( 'NONE',  ( -1.000000000000000000, 0.000000000000000000, 0.000000000000000000 ) ) ;
#59 = COORDINATED_UNIVERSAL_TIME_OFFSET ( 1, 0, .AHEAD. ) ;
#60 = CARTESIAN_POINT ( 'NONE',  ( 0.000000000000000000, 0.000000000000000000, 5.000000000000000000 ) ) ;
#61 = APPROVAL_PERSON_ORGANIZATION ( #198, #39, #8 ) ;
#62 = PERSON_AND_ORGANIZATION ( #80, #128 ) ;
#63 = DIRECTION ( 'NONE',  ( 0.000000000000000000, 0.000000000000000000, 1.000000000000000000 ) ) ;
#64 = DATE_AND_TIME ( #85, #145 ) ;
#65 = COORDINATED_UNIVERSAL_TIME_OFFSET ( 1, 0, .AHEAD. ) ;
#66 = AXIS2_PLACEMENT_3D ( 'NONE', #40, #196, #105 ) ;
#67 = ADVANCED_FACE ( 'NONE', ( #218 ), #5, .T. ) ;
#68 = CIRCLE ( 'NONE', #213, 6.000000000000000888 ) ;
#69 = DIRECTION ( 'NONE',  ( 0.000000000000000000, 0.000000000000000000, 1.000000000000000000 ) ) ;
#70 = CARTESIAN_POINT ( 'NONE',  ( 0.000000000000000000, 0.000000000000000000, 0.000000000000000000 ) ) ;
#71 = LINE ( 'NONE', #149, #224 ) ;
#72 = APPLICATION_CONTEXT ( 'configuration controlled 3d designs of mechanical parts and assemblies' ) ;
#73 = DIRECTION ( 'NONE',  ( 1.000000000000000000, 0.000000000000000000, -0.000000000000000000 ) ) ;
#74 = PLANE ( 'NONE',  #209 ) ;
#75 = VERTEX_POINT ( 'NONE', #46 ) ;
#76 = CIRCLE ( 'NONE', #137, 3.500000000000000000 ) ;
#77 = ORIENTED_EDGE ( 'NONE', *, *, #111, .T. ) ;
#78 = ORIENTED_EDGE ( 'NONE', *, *, #48, .T. ) ;
#79 = ADVANCED_FACE ( 'NONE', ( #82 ), #88, .T. ) ;
#80 = PERSON ( 'NEURÈENÝ', 'NEURÈENÝ', 'NEURÈENÝ', ('NEURÈENÝ'), ('NEURÈENÝ'), ('NEURÈENÝ') ) ;
#81 = AXIS2_PLACEMENT_3D ( 'NONE', #14, #189, #152 ) ;
#82 = FACE_OUTER_BOUND ( 'NONE', #133, .T. ) ;
#83 = APPROVAL_DATE_TIME ( #161, #124 ) ;
#84 = CARTESIAN_POINT ( 'NONE',  ( 0.000000000000000000, 0.000000000000000000, 100.0000000000000000 ) ) ;
#85 = CALENDAR_DATE ( 2023, 12, 2 ) ;
#86 = LINE ( 'NONE', #91, #234 ) ;
#87 = CC_DESIGN_PERSON_AND_ORGANIZATION_ASSIGNMENT ( #62, #24, ( #199 ) ) ;
#88 = CYLINDRICAL_SURFACE ( 'NONE', #251, 6.000000000000000888 ) ;
#89 = COORDINATED_UNIVERSAL_TIME_OFFSET ( 1, 0, .AHEAD. ) ;
#90 = VERTEX_POINT ( 'NONE', #23 ) ;
#91 = CARTESIAN_POINT ( 'NONE',  ( 6.000000000000000888, 7.347880794884120722E-16, 5.000000000000000000 ) ) ;
#92 = CARTESIAN_POINT ( 'NONE',  ( -3.500000000000000000, 0.000000000000000000, 100.0000000000000000 ) ) ;
#93 = ADVANCED_FACE ( 'NONE', ( #176 ), #160, .T. ) ;
#94 = DIRECTION ( 'NONE',  ( -0.000000000000000000, -0.000000000000000000, -1.000000000000000000 ) ) ;
#95 = CC_DESIGN_PERSON_AND_ORGANIZATION_ASSIGNMENT ( #214, #123, ( #131 ) ) ;
#96 = DIRECTION ( 'NONE',  ( -1.000000000000000000, 0.000000000000000000, 0.000000000000000000 ) ) ;
#97 = MECHANICAL_CONTEXT ( 'NONE', #72, 'mechanical' ) ;
#98 = EDGE_CURVE ( 'NONE', #90, #34, #139, .T. ) ;
#99 = VERTEX_POINT ( 'NONE', #179 ) ;
#100 = ORIENTED_EDGE ( 'NONE', *, *, #98, .F. ) ;
#101 = ORIENTED_EDGE ( 'NONE', *, *, #98, .T. ) ;
#102 = ORIENTED_EDGE ( 'NONE', *, *, #54, .T. ) ;
#103 = VECTOR ( 'NONE', #178, 1000.000000000000000 ) ;
#104 = CC_DESIGN_PERSON_AND_ORGANIZATION_ASSIGNMENT ( #43, #140, ( #158 ) ) ;
#105 = DIRECTION ( 'NONE',  ( 1.000000000000000000, 0.000000000000000000, 0.000000000000000000 ) ) ;
#106 = CALENDAR_DATE ( 2023, 12, 2 ) ;
#107 = DIRECTION ( 'NONE',  ( 0.000000000000000000, 0.000000000000000000, 1.000000000000000000 ) ) ;
#108 = APPROVAL_ROLE ( '' ) ;
#109 = CARTESIAN_POINT ( 'NONE',  ( -6.000000000000000888, 0.000000000000000000, 5.000000000000000000 ) ) ;
#110 = DATE_AND_TIME ( #106, #134 ) ;
#111 = EDGE_CURVE ( 'NONE', #90, #157, #86, .T. ) ;
#112 = ORIENTED_EDGE ( 'NONE', *, *, #182, .T. ) ;
#113 = DIRECTION ( 'NONE',  ( 1.000000000000000000, 0.000000000000000000, 0.000000000000000000 ) ) ;
#114 = CARTESIAN_POINT ( 'NONE',  ( 0.000000000000000000, 0.000000000000000000, 100.0000000000000000 ) ) ;
#115 = DIRECTION ( 'NONE',  ( 1.000000000000000000, 0.000000000000000000, 0.000000000000000000 ) ) ;
#116 = ORIENTED_EDGE ( 'NONE', *, *, #223, .F. ) ;
#117 = PERSON_AND_ORGANIZATION_ROLE ( 'design_owner' ) ;
#118 = VERTEX_POINT ( 'NONE', #92 ) ;
#119 =( NAMED_UNIT ( * ) PLANE_ANGLE_UNIT ( ) SI_UNIT ( $, .RADIAN. ) );
#120 = EDGE_LOOP ( 'NONE', ( #100, #77, #78, #175 ) ) ;
#121 = PERSON_AND_ORGANIZATION ( #80, #128 ) ;
#122 = APPLICATION_PROTOCOL_DEFINITION ( 'international standard', 'config_control_design', 1994, #72 ) ;
#123 = PERSON_AND_ORGANIZATION_ROLE ( 'design_supplier' ) ;
#124 = APPROVAL ( #238, 'NEURÈENÝ' ) ;
#125 = SECURITY_CLASSIFICATION_LEVEL ( 'unclassified' ) ;
#126 = VECTOR ( 'NONE', #166, 1000.000000000000000 ) ;
#127 = ORIENTED_EDGE ( 'NONE', *, *, #191, .F. ) ;
#128 = ORGANIZATION ( 'NEURÈENÝ', 'NEURÈENÝ', '' ) ;
#129 = EDGE_CURVE ( 'NONE', #190, #75, #7, .T. ) ;
#130 = FACE_OUTER_BOUND ( 'NONE', #120, .T. ) ;
#131 = PRODUCT_DEFINITION_FORMATION_WITH_SPECIFIED_SOURCE ( 'LIBOVOLNÝ', '', #45, .NOT_KNOWN. ) ;
#132 = PLANE ( 'NONE',  #50 ) ;
#133 = EDGE_LOOP ( 'NONE', ( #38, #116, #102, #22 ) ) ;
#134 = LOCAL_TIME ( 12, 30, 8.000000000000000000, #212 ) ;
#135 = CARTESIAN_POINT ( 'NONE',  ( 3.500000000000000000, 4.286263797015736595E-16, 100.0000000000000000 ) ) ;
#136 = CLOSED_SHELL ( 'NONE', ( #93, #215, #79, #151, #201, #156, #67 ) ) ;
#137 = AXIS2_PLACEMENT_3D ( 'NONE', #250, #32, #113 ) ;
#138 = EDGE_CURVE ( 'NONE', #1, #190, #217, .T. ) ;
#139 = CIRCLE ( 'NONE', #30, 6.000000000000000888 ) ;
#140 = PERSON_AND_ORGANIZATION_ROLE ( 'creator' ) ;
#141 = DATE_AND_TIME ( #164, #47 ) ;
#142 = LINE ( 'NONE', #109, #103 ) ;
#143 = DATE_AND_TIME ( #144, #42 ) ;
#144 = CALENDAR_DATE ( 2023, 12, 2 ) ;
#145 = LOCAL_TIME ( 12, 30, 8.000000000000000000, #89 ) ;
#146 = CC_DESIGN_PERSON_AND_ORGANIZATION_ASSIGNMENT ( #247, #117, ( #45 ) ) ;
#147 = DIRECTION ( 'NONE',  ( 0.000000000000000000, 0.000000000000000000, 1.000000000000000000 ) ) ;
#148 = DIRECTION ( 'NONE',  ( 1.000000000000000000, 0.000000000000000000, 0.000000000000000000 ) ) ;
#149 = CARTESIAN_POINT ( 'NONE',  ( -3.500000000000000000, 0.000000000000000000, 100.0000000000000000 ) ) ;
#150 = FACE_OUTER_BOUND ( 'NONE', #21, .T. ) ;
#151 = ADVANCED_FACE ( 'NONE', ( #51, #150 ), #132, .T. ) ;
#152 = DIRECTION ( 'NONE',  ( 1.000000000000000000, 0.000000000000000000, 0.000000000000000000 ) ) ;
#153 = CARTESIAN_POINT ( 'NONE',  ( 0.000000000000000000, 0.000000000000000000, 5.000000000000000000 ) ) ;
#154 = CIRCLE ( 'NONE', #66, 3.500000000000000000 ) ;
#155 = DIRECTION ( 'NONE',  ( -0.000000000000000000, -0.000000000000000000, -1.000000000000000000 ) ) ;
#156 = ADVANCED_FACE ( 'NONE', ( #246 ), #205, .T. ) ;
#157 = VERTEX_POINT ( 'NONE', #53 ) ;
#158 = PRODUCT_DEFINITION ( 'NEZNÁMÝ', '', #131, #239 ) ;
#159 = APPLICATION_CONTEXT ( 'configuration controlled 3d designs of mechanical parts and assemblies' ) ;
#160 = CYLINDRICAL_SURFACE ( 'NONE', #169, 3.500000000000000000 ) ;
#161 = DATE_AND_TIME ( #3, #163 ) ;
#162 = APPROVAL_STATUS ( 'not_yet_approved' ) ;
#163 = LOCAL_TIME ( 12, 30, 8.000000000000000000, #183 ) ;
#164 = CALENDAR_DATE ( 2023, 12, 2 ) ;
#165 = CARTESIAN_POINT ( 'NONE',  ( 0.000000000000000000, 0.000000000000000000, 5.000000000000000000 ) ) ;
#166 = DIRECTION ( 'NONE',  ( -0.000000000000000000, -0.000000000000000000, -1.000000000000000000 ) ) ;
#167 = DIRECTION ( 'NONE',  ( 0.000000000000000000, 0.000000000000000000, 1.000000000000000000 ) ) ;
#168 = CARTESIAN_POINT ( 'NONE',  ( 0.000000000000000000, 0.000000000000000000, 5.000000000000000000 ) ) ;
#169 = AXIS2_PLACEMENT_3D ( 'NONE', #233, #155, #29 ) ;
#170 = DIRECTION ( 'NONE',  ( 0.000000000000000000, 0.000000000000000000, 1.000000000000000000 ) ) ;
#171 = UNCERTAINTY_MEASURE_WITH_UNIT (LENGTH_MEASURE( 1.000000000000000082E-05 ), #187, 'distance_accuracy_value', 'NONE');
#172 = ORIENTED_EDGE ( 'NONE', *, *, #12, .T. ) ;
#173 = APPROVAL ( #56, 'NEURÈENÝ' ) ;
#174 = EDGE_LOOP ( 'NONE', ( #112, #228 ) ) ;
#175 = ORIENTED_EDGE ( 'NONE', *, *, #54, .F. ) ;
#176 = FACE_OUTER_BOUND ( 'NONE', #17, .T. ) ;
#177 = APPROVAL_DATE_TIME ( #110, #173 ) ;
#178 = DIRECTION ( 'NONE',  ( -0.000000000000000000, -0.000000000000000000, -1.000000000000000000 ) ) ;
#179 = CARTESIAN_POINT ( 'NONE',  ( -6.000000000000000888, 0.000000000000000000, 0.000000000000000000 ) ) ;
#180 = DIRECTION ( 'NONE',  ( 0.000000000000000000, 0.000000000000000000, 1.000000000000000000 ) ) ;
#181 = PERSON_AND_ORGANIZATION ( #80, #128 ) ;
#182 = EDGE_CURVE ( 'NONE', #118, #1, #36, .T. ) ;
#183 = COORDINATED_UNIVERSAL_TIME_OFFSET ( 1, 0, .AHEAD. ) ;
#184 = DIRECTION ( 'NONE',  ( -0.000000000000000000, -0.000000000000000000, -1.000000000000000000 ) ) ;
#185 = CARTESIAN_POINT ( 'NONE',  ( 0.000000000000000000, 0.000000000000000000, 0.000000000000000000 ) ) ;
#186 = DIRECTION ( 'NONE',  ( 0.000000000000000000, 0.000000000000000000, 1.000000000000000000 ) ) ;
#187 =( LENGTH_UNIT ( ) NAMED_UNIT ( * ) SI_UNIT ( .MILLI., .METRE. ) );
#188 = CC_DESIGN_APPROVAL ( #124, ( #131 ) ) ;
#189 = DIRECTION ( 'NONE',  ( 0.000000000000000000, 0.000000000000000000, 1.000000000000000000 ) ) ;
#190 = VERTEX_POINT ( 'NONE', #18 ) ;
#191 = EDGE_CURVE ( 'NONE', #99, #157, #2, .T. ) ;
#192 = ORIENTED_EDGE ( 'NONE', *, *, #48, .F. ) ;
#193 = EDGE_LOOP ( 'NONE', ( #208, #219 ) ) ;
#194 = PERSON_AND_ORGANIZATION ( #80, #128 ) ;
#195 = SHAPE_DEFINITION_REPRESENTATION ( #240, #227 ) ;
#196 = DIRECTION ( 'NONE',  ( 0.000000000000000000, 0.000000000000000000, 1.000000000000000000 ) ) ;
#197 = CARTESIAN_POINT ( 'NONE',  ( 0.000000000000000000, 0.000000000000000000, 5.000000000000000000 ) ) ;
#198 = PERSON_AND_ORGANIZATION ( #80, #128 ) ;
#199 = SECURITY_CLASSIFICATION ( '', '', #125 ) ;
#200 = DIRECTION ( 'NONE',  ( -0.000000000000000000, -0.000000000000000000, -1.000000000000000000 ) ) ;
#201 = ADVANCED_FACE ( 'NONE', ( #244 ), #74, .F. ) ;
#202 = DIRECTION ( 'NONE',  ( 1.000000000000000000, 0.000000000000000000, -0.000000000000000000 ) ) ;
#203 = AXIS2_PLACEMENT_3D ( 'NONE', #237, #63, #211 ) ;
#204 = EDGE_LOOP ( 'NONE', ( #254, #37, #55, #172 ) ) ;
#205 = CYLINDRICAL_SURFACE ( 'NONE', #10, 3.500000000000000000 ) ;
#206 = APPROVAL_PERSON_ORGANIZATION ( #194, #124, #108 ) ;
#207 = CC_DESIGN_DATE_AND_TIME_ASSIGNMENT ( #141, #44, ( #158 ) ) ;
#208 = ORIENTED_EDGE ( 'NONE', *, *, #12, .F. ) ;
#209 = AXIS2_PLACEMENT_3D ( 'NONE', #49, #170, #202 ) ;
#210 = ORIENTED_EDGE ( 'NONE', *, *, #138, .T. ) ;
#211 = DIRECTION ( 'NONE',  ( 1.000000000000000000, 0.000000000000000000, 0.000000000000000000 ) ) ;
#212 = COORDINATED_UNIVERSAL_TIME_OFFSET ( 1, 0, .AHEAD. ) ;
#213 = AXIS2_PLACEMENT_3D ( 'NONE', #13, #186, #115 ) ;
#214 = PERSON_AND_ORGANIZATION ( #80, #128 ) ;
#215 = ADVANCED_FACE ( 'NONE', ( #130 ), #225, .T. ) ;
#216 = APPROVAL_DATE_TIME ( #143, #39 ) ;
#217 = LINE ( 'NONE', #11, #126 ) ;
#218 = FACE_OUTER_BOUND ( 'NONE', #174, .T. ) ;
#219 = ORIENTED_EDGE ( 'NONE', *, *, #129, .F. ) ;
#220 = EDGE_CURVE ( 'NONE', #1, #118, #76, .T. ) ;
#221 = APPROVAL_ROLE ( '' ) ;
#222 = AXIS2_PLACEMENT_3D ( 'NONE', #84, #180, #6 ) ;
#223 = EDGE_CURVE ( 'NONE', #34, #90, #68, .T. ) ;
#224 = VECTOR ( 'NONE', #33, 1000.000000000000000 ) ;
#225 = CYLINDRICAL_SURFACE ( 'NONE', #245, 6.000000000000000888 ) ;
#226 = DIRECTION ( 'NONE',  ( 1.000000000000000000, 0.000000000000000000, 0.000000000000000000 ) ) ;
#227 = ADVANCED_BREP_SHAPE_REPRESENTATION ( '9dd1', ( #9, #252 ), #232 ) ;
#228 = ORIENTED_EDGE ( 'NONE', *, *, #220, .T. ) ;
#229 = ORIENTED_EDGE ( 'NONE', *, *, #223, .T. ) ;
#230 = EDGE_CURVE ( 'NONE', #118, #75, #71, .T. ) ;
#231 = APPROVAL_PERSON_ORGANIZATION ( #121, #173, #221 ) ;
#232 =( GEOMETRIC_REPRESENTATION_CONTEXT ( 3 ) GLOBAL_UNCERTAINTY_ASSIGNED_CONTEXT ( ( #171 ) ) GLOBAL_UNIT_ASSIGNED_CONTEXT ( ( #187, #119, #255 ) ) REPRESENTATION_CONTEXT ( 'NONE', 'WORKASPACE' ) );
#233 = CARTESIAN_POINT ( 'NONE',  ( 0.000000000000000000, 0.000000000000000000, 100.0000000000000000 ) ) ;
#234 = VECTOR ( 'NONE', #235, 1000.000000000000000 ) ;
#235 = DIRECTION ( 'NONE',  ( -0.000000000000000000, -0.000000000000000000, -1.000000000000000000 ) ) ;
#236 = DIRECTION ( 'NONE',  ( 1.000000000000000000, 0.000000000000000000, 0.000000000000000000 ) ) ;
#237 = CARTESIAN_POINT ( 'NONE',  ( 0.000000000000000000, 0.000000000000000000, 0.000000000000000000 ) ) ;
#238 = APPROVAL_STATUS ( 'not_yet_approved' ) ;
#239 = DESIGN_CONTEXT ( 'detailed design', #159, 'design' ) ;
#240 = PRODUCT_DEFINITION_SHAPE ( 'NONE', 'NONE',  #158 ) ;
#241 = CC_DESIGN_APPROVAL ( #39, ( #199 ) ) ;
#242 = APPLICATION_PROTOCOL_DEFINITION ( 'international standard', 'config_control_design', 1994, #159 ) ;
#243 = DIRECTION ( 'NONE',  ( 0.000000000000000000, 0.000000000000000000, 1.000000000000000000 ) ) ;
#244 = FACE_OUTER_BOUND ( 'NONE', #57, .T. ) ;
#245 = AXIS2_PLACEMENT_3D ( 'NONE', #153, #200, #248 ) ;
#246 = FACE_OUTER_BOUND ( 'NONE', #204, .T. ) ;
#247 = PERSON_AND_ORGANIZATION ( #80, #128 ) ;
#248 = DIRECTION ( 'NONE',  ( -1.000000000000000000, 0.000000000000000000, 0.000000000000000000 ) ) ;
#249 = PRODUCT_RELATED_PRODUCT_CATEGORY ( 'detail', '', ( #45 ) ) ;
#250 = CARTESIAN_POINT ( 'NONE',  ( 0.000000000000000000, 0.000000000000000000, 100.0000000000000000 ) ) ;
#251 = AXIS2_PLACEMENT_3D ( 'NONE', #197, #184, #58 ) ;
#252 = AXIS2_PLACEMENT_3D ( 'NONE', #185, #167, #148 ) ;
#253 = ORIENTED_EDGE ( 'NONE', *, *, #129, .T. ) ;
#254 = ORIENTED_EDGE ( 'NONE', *, *, #138, .F. ) ;
#255 =( NAMED_UNIT ( * ) SI_UNIT ( $, .STERADIAN. ) SOLID_ANGLE_UNIT ( ) );
ENDSEC;
END-ISO-10303-21;
