ISO-10303-21;
HEADER;
FILE_DESCRIPTION (( 'STEP AP203' ),
    '1' );
FILE_NAME ('01cd.STEP',
    '2022-07-07T12:49:59',
    ( '' ),
    ( '' ),
    'SwSTEP 2.0',
    'SolidWorks 2019',
    '' );
FILE_SCHEMA (( 'CONFIG_CONTROL_DESIGN' ));
ENDSEC;

DATA;
#1 = DIRECTION ( 'NONE',  ( 0.000000000000000000, -1.000000000000000000, 0.000000000000000000 ) ) ;
#2 = EDGE_LOOP ( 'NONE', ( #148, #104, #263, #152 ) ) ;
#3 = ORIENTED_EDGE ( 'NONE', *, *, #58, .T. ) ;
#4 = APPROVAL_ROLE ( '' ) ;
#5 = VERTEX_POINT ( 'NONE', #99 ) ;
#6 = ORIENTED_EDGE ( 'NONE', *, *, #215, .T. ) ;
#7 = DIRECTION ( 'NONE',  ( -1.000000000000000000, 0.000000000000000000, 0.000000000000000000 ) ) ;
#8 = EDGE_CURVE ( 'NONE', #5, #243, #246, .T. ) ;
#9 = DIRECTION ( 'NONE',  ( 0.000000000000000000, 0.000000000000000000, 1.000000000000000000 ) ) ;
#10 = LOCAL_TIME ( 14, 49, 59.00000000000000000, #185 ) ;
#11 = DIRECTION ( 'NONE',  ( -0.000000000000000000, -0.000000000000000000, -1.000000000000000000 ) ) ;
#12 = ADVANCED_FACE ( 'NONE', ( #122 ), #222, .F. ) ;
#13 = VECTOR ( 'NONE', #63, 1000.000000000000000 ) ;
#14 = DIRECTION ( 'NONE',  ( 0.000000000000000000, 0.000000000000000000, 1.000000000000000000 ) ) ;
#15 = EDGE_CURVE ( 'NONE', #101, #123, #82, .T. ) ;
#16 = UNCERTAINTY_MEASURE_WITH_UNIT (LENGTH_MEASURE( 1.000000000000000082E-05 ), #59, 'distance_accuracy_value', 'NONE');
#17 = AXIS2_PLACEMENT_3D ( 'NONE', #169, #260, #64 ) ;
#18 = AXIS2_PLACEMENT_3D ( 'NONE', #206, #205, #68 ) ;
#19 = FACE_OUTER_BOUND ( 'NONE', #80, .T. ) ;
#20 = DIRECTION ( 'NONE',  ( 1.000000000000000000, 0.000000000000000000, 0.000000000000000000 ) ) ;
#21 = EDGE_CURVE ( 'NONE', #53, #192, #134, .T. ) ;
#22 = CARTESIAN_POINT ( 'NONE',  ( 0.000000000000000000, 0.000000000000000000, 3.000000000000000000 ) ) ;
#23 = APPROVAL_ROLE ( '' ) ;
#24 = LOCAL_TIME ( 14, 49, 59.00000000000000000, #183 ) ;
#25 = DIRECTION ( 'NONE',  ( 0.000000000000000000, 0.000000000000000000, 1.000000000000000000 ) ) ;
#26 = AXIS2_PLACEMENT_3D ( 'NONE', #218, #9, #175 ) ;
#27 = PRODUCT_DEFINITION_SHAPE ( 'NONE', 'NONE',  #62 ) ;
#28 = ORIENTED_EDGE ( 'NONE', *, *, #159, .F. ) ;
#29 = MANIFOLD_SOLID_BREP ( 'Zaoblit1', #226 ) ;
#30 = CARTESIAN_POINT ( 'NONE',  ( 2.300000000000000266, 0.000000000000000000, 3.200000000000008171 ) ) ;
#31 = CC_DESIGN_DATE_AND_TIME_ASSIGNMENT ( #45, #254, ( #62 ) ) ;
#32 = ORIENTED_EDGE ( 'NONE', *, *, #215, .F. ) ;
#33 = COORDINATED_UNIVERSAL_TIME_OFFSET ( 1, 0, .AHEAD. ) ;
#34 = APPROVAL_PERSON_ORGANIZATION ( #51, #136, #4 ) ;
#35 = ORIENTED_EDGE ( 'NONE', *, *, #110, .F. ) ;
#36 = APPROVAL_ROLE ( '' ) ;
#37 = ORIENTED_EDGE ( 'NONE', *, *, #15, .T. ) ;
#38 = CC_DESIGN_APPROVAL ( #136, ( #305 ) ) ;
#39 = PERSON_AND_ORGANIZATION_ROLE ( 'design_owner' ) ;
#40 = AXIS2_PLACEMENT_3D ( 'NONE', #230, #257, #43 ) ;
#41 = DIRECTION ( 'NONE',  ( -0.000000000000000000, -0.000000000000000000, -1.000000000000000000 ) ) ;
#42 = AXIS2_PLACEMENT_3D ( 'NONE', #301, #163, #251 ) ;
#43 = DIRECTION ( 'NONE',  ( 1.000000000000000000, 0.000000000000000000, -0.000000000000000000 ) ) ;
#44 = CARTESIAN_POINT ( 'NONE',  ( 2.100000000000000089, 2.571758278209441957E-16, 3.200000000000008171 ) ) ;
#45 = DATE_AND_TIME ( #237, #10 ) ;
#46 = DIRECTION ( 'NONE',  ( -0.000000000000000000, -0.000000000000000000, -1.000000000000000000 ) ) ;
#47 = SHAPE_DEFINITION_REPRESENTATION ( #27, #297 ) ;
#48 = DIRECTION ( 'NONE',  ( 1.000000000000000000, 0.000000000000000000, -0.000000000000000000 ) ) ;
#49 = PERSON_AND_ORGANIZATION ( #182, #268 ) ;
#50 = EDGE_LOOP ( 'NONE', ( #76, #37 ) ) ;
#51 = PERSON_AND_ORGANIZATION ( #182, #268 ) ;
#52 = DIRECTION ( 'NONE',  ( 1.000000000000000000, 0.000000000000000000, 0.000000000000000000 ) ) ;
#53 = VERTEX_POINT ( 'NONE', #242 ) ;
#54 = DATE_AND_TIME ( #262, #119 ) ;
#55 = CARTESIAN_POINT ( 'NONE',  ( 0.000000000000000000, 0.000000000000000000, 3.000000000000000000 ) ) ;
#56 = ORIENTED_EDGE ( 'NONE', *, *, #274, .T. ) ;
#57 = AXIS2_PLACEMENT_3D ( 'NONE', #289, #11, #81 ) ;
#58 = EDGE_CURVE ( 'NONE', #243, #191, #211, .T. ) ;
#59 =( LENGTH_UNIT ( ) NAMED_UNIT ( * ) SI_UNIT ( .MILLI., .METRE. ) );
#60 = APPLICATION_CONTEXT ( 'configuration controlled 3d designs of mechanical parts and assemblies' ) ;
#61 = AXIS2_PLACEMENT_3D ( 'NONE', #84, #266, #130 ) ;
#62 = PRODUCT_DEFINITION ( 'NEZNÁMÝ', '', #135, #88 ) ;
#63 = DIRECTION ( 'NONE',  ( -0.000000000000000000, -0.000000000000000000, -1.000000000000000000 ) ) ;
#64 = DIRECTION ( 'NONE',  ( 1.000000000000000000, 0.000000000000000000, 0.000000000000000000 ) ) ;
#65 = CIRCLE ( 'NONE', #93, 4.000000000000000000 ) ;
#66 = AXIS2_PLACEMENT_3D ( 'NONE', #208, #67, #233 ) ;
#67 = DIRECTION ( 'NONE',  ( 0.000000000000000000, 0.000000000000000000, 1.000000000000000000 ) ) ;
#68 = DIRECTION ( 'NONE',  ( 1.000000000000000000, 0.000000000000000000, 0.000000000000000000 ) ) ;
#69 = DATE_AND_TIME ( #195, #24 ) ;
#70 = CARTESIAN_POINT ( 'NONE',  ( -4.000000000000000000, 0.000000000000000000, 0.000000000000000000 ) ) ;
#71 = APPROVAL_DATE_TIME ( #259, #229 ) ;
#72 = DIRECTION ( 'NONE',  ( 0.000000000000000000, 0.000000000000000000, 1.000000000000000000 ) ) ;
#73 = AXIS2_PLACEMENT_3D ( 'NONE', #204, #116, #94 ) ;
#74 = COORDINATED_UNIVERSAL_TIME_OFFSET ( 1, 0, .AHEAD. ) ;
#75 = DIRECTION ( 'NONE',  ( 0.000000000000000000, 0.000000000000000000, -1.000000000000000000 ) ) ;
#76 = ORIENTED_EDGE ( 'NONE', *, *, #159, .T. ) ;
#77 = CALENDAR_DATE ( 2022, 7, 7 ) ;
#78 = ORIENTED_EDGE ( 'NONE', *, *, #21, .F. ) ;
#79 = EDGE_CURVE ( 'NONE', #243, #5, #126, .T. ) ;
#80 = EDGE_LOOP ( 'NONE', ( #288, #290 ) ) ;
#81 = DIRECTION ( 'NONE',  ( -1.000000000000000000, 0.000000000000000000, 0.000000000000000000 ) ) ;
#82 = CIRCLE ( 'NONE', #98, 4.000000000000000000 ) ;
#83 = ORIENTED_EDGE ( 'NONE', *, *, #8, .F. ) ;
#84 = CARTESIAN_POINT ( 'NONE',  ( 0.000000000000000000, 0.000000000000000000, 3.000000000000000000 ) ) ;
#85 =( NAMED_UNIT ( * ) SI_UNIT ( $, .STERADIAN. ) SOLID_ANGLE_UNIT ( ) );
#86 = PRODUCT_RELATED_PRODUCT_CATEGORY ( 'detail', '', ( #196 ) ) ;
#87 = ADVANCED_FACE ( 'NONE', ( #19 ), #249, .F. ) ;
#88 = DESIGN_CONTEXT ( 'detailed design', #60, 'design' ) ;
#89 = VECTOR ( 'NONE', #277, 1000.000000000000000 ) ;
#90 = LINE ( 'NONE', #275, #89 ) ;
#91 = CARTESIAN_POINT ( 'NONE',  ( 2.300000000000000266, 0.000000000000000000, 3.000000000000004441 ) ) ;
#92 = PLANE ( 'NONE',  #273 ) ;
#93 = AXIS2_PLACEMENT_3D ( 'NONE', #22, #25, #20 ) ;
#94 = DIRECTION ( 'NONE',  ( 1.000000000000000000, 0.000000000000000000, 0.000000000000000000 ) ) ;
#95 = PERSON_AND_ORGANIZATION ( #182, #268 ) ;
#96 = DIRECTION ( 'NONE',  ( 0.000000000000000000, 0.000000000000000000, 1.000000000000000000 ) ) ;
#97 = DIRECTION ( 'NONE',  ( 0.000000000000000000, 0.000000000000000000, 1.000000000000000000 ) ) ;
#98 = AXIS2_PLACEMENT_3D ( 'NONE', #55, #97, #258 ) ;
#99 = CARTESIAN_POINT ( 'NONE',  ( -2.100000000000000089, 0.000000000000000000, 3.200000000000008171 ) ) ;
#100 = EDGE_LOOP ( 'NONE', ( #285, #103 ) ) ;
#101 = VERTEX_POINT ( 'NONE', #253 ) ;
#102 = ORIENTED_EDGE ( 'NONE', *, *, #224, .F. ) ;
#103 = ORIENTED_EDGE ( 'NONE', *, *, #189, .T. ) ;
#104 = ORIENTED_EDGE ( 'NONE', *, *, #110, .T. ) ;
#105 = CARTESIAN_POINT ( 'NONE',  ( -2.300000000000000266, 2.816687638038912549E-16, 3.200000000000008171 ) ) ;
#106 = LOCAL_TIME ( 14, 49, 59.00000000000000000, #252 ) ;
#107 = FACE_OUTER_BOUND ( 'NONE', #170, .T. ) ;
#108 = FACE_OUTER_BOUND ( 'NONE', #2, .T. ) ;
#109 = CIRCLE ( 'NONE', #190, 4.000000000000000000 ) ;
#110 = EDGE_CURVE ( 'NONE', #101, #216, #279, .T. ) ;
#111 = CC_DESIGN_PERSON_AND_ORGANIZATION_ASSIGNMENT ( #147, #207, ( #135 ) ) ;
#112 = CARTESIAN_POINT ( 'NONE',  ( 4.000000000000000000, 4.898587196589412829E-16, 3.000000000000000000 ) ) ;
#113 = AXIS2_PLACEMENT_3D ( 'NONE', #30, #1, #75 ) ;
#114 = CIRCLE ( 'NONE', #296, 2.100000000000000089 ) ;
#115 = DIRECTION ( 'NONE',  ( 1.000000000000000000, 0.000000000000000000, 0.000000000000000000 ) ) ;
#116 = DIRECTION ( 'NONE',  ( -0.000000000000000000, -0.000000000000000000, -1.000000000000000000 ) ) ;
#117 = CARTESIAN_POINT ( 'NONE',  ( 2.100000000000000089, 2.571758278209441957E-16, 163.0000000000000000 ) ) ;
#118 = CALENDAR_DATE ( 2022, 7, 7 ) ;
#119 = LOCAL_TIME ( 14, 49, 59.00000000000000000, #33 ) ;
#120 = CARTESIAN_POINT ( 'NONE',  ( -4.000000000000000000, 0.000000000000000000, 3.000000000000000000 ) ) ;
#121 = PERSON_AND_ORGANIZATION_ROLE ( 'creator' ) ;
#122 = FACE_OUTER_BOUND ( 'NONE', #276, .T. ) ;
#123 = VERTEX_POINT ( 'NONE', #250 ) ;
#124 = PERSON_AND_ORGANIZATION_ROLE ( 'creator' ) ;
#125 = ADVANCED_FACE ( 'NONE', ( #231 ), #291, .F. ) ;
#126 = CIRCLE ( 'NONE', #17, 2.100000000000000089 ) ;
#127 = ORIENTED_EDGE ( 'NONE', *, *, #174, .T. ) ;
#128 = PERSON_AND_ORGANIZATION_ROLE ( 'classification_officer' ) ;
#129 = ORIENTED_EDGE ( 'NONE', *, *, #8, .T. ) ;
#130 = DIRECTION ( 'NONE',  ( -1.000000000000000000, 0.000000000000000000, 0.000000000000000000 ) ) ;
#131 = CC_DESIGN_APPROVAL ( #229, ( #135 ) ) ;
#132 = PERSON_AND_ORGANIZATION ( #182, #268 ) ;
#133 = ADVANCED_FACE ( 'NONE', ( #307 ), #202, .T. ) ;
#134 = CIRCLE ( 'NONE', #256, 2.100000000000000089 ) ;
#135 = PRODUCT_DEFINITION_FORMATION_WITH_SPECIFIED_SOURCE ( 'LIBOVOLNÝ', '', #196, .NOT_KNOWN. ) ;
#136 = APPROVAL ( #240, 'NEURÈENÝ' ) ;
#137 = LINE ( 'NONE', #120, #13 ) ;
#138 = CC_DESIGN_PERSON_AND_ORGANIZATION_ASSIGNMENT ( #232, #124, ( #62 ) ) ;
#139 = APPLICATION_CONTEXT ( 'configuration controlled 3d designs of mechanical parts and assemblies' ) ;
#140 = CARTESIAN_POINT ( 'NONE',  ( 0.000000000000000000, 0.000000000000000000, 3.000000000000000000 ) ) ;
#141 = DIRECTION ( 'NONE',  ( 0.000000000000000000, 0.000000000000000000, 1.000000000000000000 ) ) ;
#142 = APPROVAL_STATUS ( 'not_yet_approved' ) ;
#143 = FACE_OUTER_BOUND ( 'NONE', #145, .T. ) ;
#144 = LOCAL_TIME ( 14, 49, 59.00000000000000000, #74 ) ;
#145 = EDGE_LOOP ( 'NONE', ( #35, #28, #127, #209 ) ) ;
#146 = ORIENTED_EDGE ( 'NONE', *, *, #189, .F. ) ;
#147 = PERSON_AND_ORGANIZATION ( #182, #268 ) ;
#148 = ORIENTED_EDGE ( 'NONE', *, *, #15, .F. ) ;
#149 = EDGE_LOOP ( 'NONE', ( #83, #56, #102, #287 ) ) ;
#150 = APPROVAL_DATE_TIME ( #54, #294 ) ;
#151 = DIRECTION ( 'NONE',  ( 0.000000000000000000, 0.000000000000000000, 1.000000000000000000 ) ) ;
#152 = ORIENTED_EDGE ( 'NONE', *, *, #174, .F. ) ;
#153 = APPLICATION_PROTOCOL_DEFINITION ( 'international standard', 'config_control_design', 1994, #60 ) ;
#154 = ORIENTED_EDGE ( 'NONE', *, *, #177, .T. ) ;
#155 = ADVANCED_FACE ( 'NONE', ( #178, #283 ), #92, .T. ) ;
#156 = APPLICATION_PROTOCOL_DEFINITION ( 'international standard', 'config_control_design', 1994, #139 ) ;
#157 = CYLINDRICAL_SURFACE ( 'NONE', #57, 2.100000000000000089 ) ;
#158 = CIRCLE ( 'NONE', #18, 2.300000000000000266 ) ;
#159 = EDGE_CURVE ( 'NONE', #123, #101, #65, .T. ) ;
#160 = CARTESIAN_POINT ( 'NONE',  ( 0.000000000000000000, 0.000000000000000000, 163.0000000000000000 ) ) ;
#161 = DIRECTION ( 'NONE',  ( 1.000000000000000000, 0.000000000000000000, -0.000000000000000000 ) ) ;
#162 = CC_DESIGN_SECURITY_CLASSIFICATION ( #305, ( #135 ) ) ;
#163 = DIRECTION ( 'NONE',  ( -0.000000000000000000, -0.000000000000000000, -1.000000000000000000 ) ) ;
#164 = CYLINDRICAL_SURFACE ( 'NONE', #42, 4.000000000000000000 ) ;
#165 = APPROVAL_DATE_TIME ( #234, #136 ) ;
#166 = DIRECTION ( 'NONE',  ( 0.000000000000000000, 0.000000000000000000, 1.000000000000000000 ) ) ;
#167 = AXIS2_PLACEMENT_3D ( 'NONE', #173, #199, #7 ) ;
#168 = DIRECTION ( 'NONE',  ( 1.000000000000000000, 0.000000000000000000, 0.000000000000000000 ) ) ;
#169 = CARTESIAN_POINT ( 'NONE',  ( 0.000000000000000000, 0.000000000000000000, 3.200000000000008171 ) ) ;
#170 = EDGE_LOOP ( 'NONE', ( #78, #154, #193, #32 ) ) ;
#171 = ORIENTED_EDGE ( 'NONE', *, *, #274, .F. ) ;
#172 = EDGE_LOOP ( 'NONE', ( #194, #261, #6, #129 ) ) ;
#173 = CARTESIAN_POINT ( 'NONE',  ( 0.000000000000000000, 0.000000000000000000, 163.0000000000000000 ) ) ;
#174 = EDGE_CURVE ( 'NONE', #123, #269, #137, .T. ) ;
#175 = DIRECTION ( 'NONE',  ( 1.000000000000000000, 0.000000000000000000, 0.000000000000000000 ) ) ;
#176 = CYLINDRICAL_SURFACE ( 'NONE', #167, 2.100000000000000089 ) ;
#177 = EDGE_CURVE ( 'NONE', #53, #243, #180, .T. ) ;
#178 = FACE_BOUND ( 'NONE', #100, .T. ) ;
#179 = DIRECTION ( 'NONE',  ( 0.000000000000000000, 0.000000000000000000, 1.000000000000000000 ) ) ;
#180 = LINE ( 'NONE', #117, #304 ) ;
#181 = CARTESIAN_POINT ( 'NONE',  ( 4.000000000000000000, 4.898587196589412829E-16, 0.000000000000000000 ) ) ;
#182 = PERSON ( 'NEURÈENÝ', 'NEURÈENÝ', 'NEURÈENÝ', ('NEURÈENÝ'), ('NEURÈENÝ'), ('NEURÈENÝ') ) ;
#183 = COORDINATED_UNIVERSAL_TIME_OFFSET ( 1, 0, .AHEAD. ) ;
#184 = CARTESIAN_POINT ( 'NONE',  ( 0.000000000000000000, 0.000000000000000000, 0.000000000000000000 ) ) ;
#185 = COORDINATED_UNIVERSAL_TIME_OFFSET ( 1, 0, .AHEAD. ) ;
#186 = DIRECTION ( 'NONE',  ( 0.000000000000000000, 0.000000000000000000, 1.000000000000000000 ) ) ;
#187 = CC_DESIGN_DATE_AND_TIME_ASSIGNMENT ( #69, #281, ( #305 ) ) ;
#188 = AXIS2_PLACEMENT_3D ( 'NONE', #227, #166, #115 ) ;
#189 = EDGE_CURVE ( 'NONE', #265, #191, #203, .T. ) ;
#190 = AXIS2_PLACEMENT_3D ( 'NONE', #184, #141, #221 ) ;
#191 = VERTEX_POINT ( 'NONE', #91 ) ;
#192 = VERTEX_POINT ( 'NONE', #298 ) ;
#193 = ORIENTED_EDGE ( 'NONE', *, *, #79, .T. ) ;
#194 = ORIENTED_EDGE ( 'NONE', *, *, #177, .F. ) ;
#195 = CALENDAR_DATE ( 2022, 7, 7 ) ;
#196 = PRODUCT ( '01cd', '01cd', '', ( #245 ) ) ;
#197 = ORIENTED_EDGE ( 'NONE', *, *, #21, .T. ) ;
#198 = DIRECTION ( 'NONE',  ( 1.224646799147353207E-16, 1.000000000000000000, -0.000000000000000000 ) ) ;
#199 = DIRECTION ( 'NONE',  ( -0.000000000000000000, -0.000000000000000000, -1.000000000000000000 ) ) ;
#200 = AXIS2_PLACEMENT_3D ( 'NONE', #303, #14, #161 ) ;
#201 = EDGE_CURVE ( 'NONE', #192, #53, #114, .T. ) ;
#202 = PLANE ( 'NONE',  #40 ) ;
#203 = CIRCLE ( 'NONE', #73, 2.300000000000000266 ) ;
#204 = CARTESIAN_POINT ( 'NONE',  ( 0.000000000000000000, 0.000000000000000000, 3.000000000000000000 ) ) ;
#205 = DIRECTION ( 'NONE',  ( -0.000000000000000000, -0.000000000000000000, -1.000000000000000000 ) ) ;
#206 = CARTESIAN_POINT ( 'NONE',  ( 0.000000000000000000, 0.000000000000000000, 3.000000000000000000 ) ) ;
#207 = PERSON_AND_ORGANIZATION_ROLE ( 'design_supplier' ) ;
#208 = CARTESIAN_POINT ( 'NONE',  ( 0.000000000000000000, 0.000000000000000000, 0.000000000000000000 ) ) ;
#209 = ORIENTED_EDGE ( 'NONE', *, *, #241, .T. ) ;
#210 = CARTESIAN_POINT ( 'NONE',  ( 0.000000000000000000, 0.000000000000000000, 3.200000000000008171 ) ) ;
#211 = CIRCLE ( 'NONE', #113, 0.2000000000000000944 ) ;
#212 = PERSON_AND_ORGANIZATION ( #182, #268 ) ;
#213 = CIRCLE ( 'NONE', #66, 4.000000000000000000 ) ;
#214 = ORIENTED_EDGE ( 'NONE', *, *, #201, .T. ) ;
#215 = EDGE_CURVE ( 'NONE', #192, #5, #90, .T. ) ;
#216 = VERTEX_POINT ( 'NONE', #181 ) ;
#217 =( NAMED_UNIT ( * ) PLANE_ANGLE_UNIT ( ) SI_UNIT ( $, .RADIAN. ) );
#218 = CARTESIAN_POINT ( 'NONE',  ( 0.000000000000000000, 0.000000000000000000, 0.000000000000000000 ) ) ;
#219 = AXIS2_PLACEMENT_3D ( 'NONE', #284, #186, #52 ) ;
#220 = CYLINDRICAL_SURFACE ( 'NONE', #61, 4.000000000000000000 ) ;
#221 = DIRECTION ( 'NONE',  ( 1.000000000000000000, 0.000000000000000000, 0.000000000000000000 ) ) ;
#222 = TOROIDAL_SURFACE ( 'NONE', #264, 2.300000000000000266, 0.2000000000000000111 ) ;
#223 = CC_DESIGN_APPROVAL ( #294, ( #62 ) ) ;
#224 = EDGE_CURVE ( 'NONE', #191, #265, #158, .T. ) ;
#225 = CARTESIAN_POINT ( 'NONE',  ( -2.300000000000000266, 2.816687638038912549E-16, 3.000000000000004441 ) ) ;
#226 = CLOSED_SHELL ( 'NONE', ( #125, #280, #302, #228, #155, #87, #299, #133, #12 ) ) ;
#227 = CARTESIAN_POINT ( 'NONE',  ( 0.000000000000000000, 0.000000000000000000, 3.200000000000008171 ) ) ;
#228 = ADVANCED_FACE ( 'NONE', ( #143 ), #164, .T. ) ;
#229 = APPROVAL ( #142, 'NEURÈENÝ' ) ;
#230 = CARTESIAN_POINT ( 'NONE',  ( 0.000000000000000000, 0.000000000000000000, 163.0000000000000000 ) ) ;
#231 = FACE_OUTER_BOUND ( 'NONE', #149, .T. ) ;
#232 = PERSON_AND_ORGANIZATION ( #182, #268 ) ;
#233 = DIRECTION ( 'NONE',  ( 1.000000000000000000, 0.000000000000000000, 0.000000000000000000 ) ) ;
#234 = DATE_AND_TIME ( #77, #106 ) ;
#235 = APPROVAL_PERSON_ORGANIZATION ( #132, #294, #36 ) ;
#236 = ORIENTED_EDGE ( 'NONE', *, *, #79, .F. ) ;
#237 = CALENDAR_DATE ( 2022, 7, 7 ) ;
#238 = DIRECTION ( 'NONE',  ( 1.000000000000000000, 0.000000000000000000, 0.000000000000000000 ) ) ;
#239 = CARTESIAN_POINT ( 'NONE',  ( 0.000000000000000000, 0.000000000000000000, 163.0000000000000000 ) ) ;
#240 = APPROVAL_STATUS ( 'not_yet_approved' ) ;
#241 = EDGE_CURVE ( 'NONE', #269, #216, #213, .T. ) ;
#242 = CARTESIAN_POINT ( 'NONE',  ( 2.100000000000000089, 2.571758278209441957E-16, 163.0000000000000000 ) ) ;
#243 = VERTEX_POINT ( 'NONE', #44 ) ;
#244 = APPROVAL_STATUS ( 'not_yet_approved' ) ;
#245 = MECHANICAL_CONTEXT ( 'NONE', #139, 'mechanical' ) ;
#246 = CIRCLE ( 'NONE', #219, 2.100000000000000089 ) ;
#247 = VECTOR ( 'NONE', #41, 1000.000000000000000 ) ;
#248 =( GEOMETRIC_REPRESENTATION_CONTEXT ( 3 ) GLOBAL_UNCERTAINTY_ASSIGNED_CONTEXT ( ( #16 ) ) GLOBAL_UNIT_ASSIGNED_CONTEXT ( ( #59, #217, #85 ) ) REPRESENTATION_CONTEXT ( 'NONE', 'WORKASPACE' ) );
#249 = PLANE ( 'NONE',  #200 ) ;
#250 = CARTESIAN_POINT ( 'NONE',  ( -4.000000000000000000, 0.000000000000000000, 3.000000000000000000 ) ) ;
#251 = DIRECTION ( 'NONE',  ( -1.000000000000000000, 0.000000000000000000, 0.000000000000000000 ) ) ;
#252 = COORDINATED_UNIVERSAL_TIME_OFFSET ( 1, 0, .AHEAD. ) ;
#253 = CARTESIAN_POINT ( 'NONE',  ( 4.000000000000000000, 4.898587196589412829E-16, 3.000000000000000000 ) ) ;
#254 = DATE_TIME_ROLE ( 'creation_date' ) ;
#255 = CC_DESIGN_PERSON_AND_ORGANIZATION_ASSIGNMENT ( #295, #39, ( #196 ) ) ;
#256 = AXIS2_PLACEMENT_3D ( 'NONE', #239, #151, #238 ) ;
#257 = DIRECTION ( 'NONE',  ( 0.000000000000000000, 0.000000000000000000, 1.000000000000000000 ) ) ;
#258 = DIRECTION ( 'NONE',  ( 1.000000000000000000, 0.000000000000000000, 0.000000000000000000 ) ) ;
#259 = DATE_AND_TIME ( #118, #144 ) ;
#260 = DIRECTION ( 'NONE',  ( 0.000000000000000000, 0.000000000000000000, 1.000000000000000000 ) ) ;
#261 = ORIENTED_EDGE ( 'NONE', *, *, #201, .F. ) ;
#262 = CALENDAR_DATE ( 2022, 7, 7 ) ;
#263 = ORIENTED_EDGE ( 'NONE', *, *, #272, .T. ) ;
#264 = AXIS2_PLACEMENT_3D ( 'NONE', #210, #72, #168 ) ;
#265 = VERTEX_POINT ( 'NONE', #225 ) ;
#266 = DIRECTION ( 'NONE',  ( -0.000000000000000000, -0.000000000000000000, -1.000000000000000000 ) ) ;
#267 = AXIS2_PLACEMENT_3D ( 'NONE', #105, #198, #292 ) ;
#268 = ORGANIZATION ( 'NEURÈENÝ', 'NEURÈENÝ', '' ) ;
#269 = VERTEX_POINT ( 'NONE', #70 ) ;
#270 = FACE_OUTER_BOUND ( 'NONE', #172, .T. ) ;
#271 = CC_DESIGN_PERSON_AND_ORGANIZATION_ASSIGNMENT ( #212, #121, ( #135 ) ) ;
#272 = EDGE_CURVE ( 'NONE', #216, #269, #109, .T. ) ;
#273 = AXIS2_PLACEMENT_3D ( 'NONE', #140, #96, #48 ) ;
#274 = EDGE_CURVE ( 'NONE', #5, #265, #278, .T. ) ;
#275 = CARTESIAN_POINT ( 'NONE',  ( -2.100000000000000089, 0.000000000000000000, 163.0000000000000000 ) ) ;
#276 = EDGE_LOOP ( 'NONE', ( #171, #236, #3, #146 ) ) ;
#277 = DIRECTION ( 'NONE',  ( -0.000000000000000000, -0.000000000000000000, -1.000000000000000000 ) ) ;
#278 = CIRCLE ( 'NONE', #267, 0.2000000000000000944 ) ;
#279 = LINE ( 'NONE', #112, #247 ) ;
#280 = ADVANCED_FACE ( 'NONE', ( #107 ), #157, .T. ) ;
#281 = DATE_TIME_ROLE ( 'classification_date' ) ;
#282 = CC_DESIGN_PERSON_AND_ORGANIZATION_ASSIGNMENT ( #49, #128, ( #305 ) ) ;
#283 = FACE_OUTER_BOUND ( 'NONE', #50, .T. ) ;
#284 = CARTESIAN_POINT ( 'NONE',  ( 0.000000000000000000, 0.000000000000000000, 3.200000000000008171 ) ) ;
#285 = ORIENTED_EDGE ( 'NONE', *, *, #224, .T. ) ;
#286 = EDGE_LOOP ( 'NONE', ( #214, #197 ) ) ;
#287 = ORIENTED_EDGE ( 'NONE', *, *, #58, .F. ) ;
#288 = ORIENTED_EDGE ( 'NONE', *, *, #241, .F. ) ;
#289 = CARTESIAN_POINT ( 'NONE',  ( 0.000000000000000000, 0.000000000000000000, 163.0000000000000000 ) ) ;
#290 = ORIENTED_EDGE ( 'NONE', *, *, #272, .F. ) ;
#291 = TOROIDAL_SURFACE ( 'NONE', #188, 2.300000000000000266, 0.2000000000000000111 ) ;
#292 = DIRECTION ( 'NONE',  ( -1.000000000000000000, 1.224646799147353207E-16, 0.000000000000000000 ) ) ;
#293 = APPROVAL_PERSON_ORGANIZATION ( #95, #229, #23 ) ;
#294 = APPROVAL ( #244, 'NEURÈENÝ' ) ;
#295 = PERSON_AND_ORGANIZATION ( #182, #268 ) ;
#296 = AXIS2_PLACEMENT_3D ( 'NONE', #160, #179, #300 ) ;
#297 = ADVANCED_BREP_SHAPE_REPRESENTATION ( '01cd', ( #29, #26 ), #248 ) ;
#298 = CARTESIAN_POINT ( 'NONE',  ( -2.100000000000000089, 0.000000000000000000, 163.0000000000000000 ) ) ;
#299 = ADVANCED_FACE ( 'NONE', ( #270 ), #176, .T. ) ;
#300 = DIRECTION ( 'NONE',  ( 1.000000000000000000, 0.000000000000000000, 0.000000000000000000 ) ) ;
#301 = CARTESIAN_POINT ( 'NONE',  ( 0.000000000000000000, 0.000000000000000000, 3.000000000000000000 ) ) ;
#302 = ADVANCED_FACE ( 'NONE', ( #108 ), #220, .T. ) ;
#303 = CARTESIAN_POINT ( 'NONE',  ( 0.000000000000000000, 0.000000000000000000, 0.000000000000000000 ) ) ;
#304 = VECTOR ( 'NONE', #46, 1000.000000000000000 ) ;
#305 = SECURITY_CLASSIFICATION ( '', '', #306 ) ;
#306 = SECURITY_CLASSIFICATION_LEVEL ( 'unclassified' ) ;
#307 = FACE_OUTER_BOUND ( 'NONE', #286, .T. ) ;
ENDSEC;
END-ISO-10303-21;
