ISO-10303-21;
HEADER;
FILE_DESCRIPTION (( 'STEP AP203' ),
    '1' );
FILE_NAME ('f819.STEP',
    '2022-07-07T12:41:38',
    ( '' ),
    ( '' ),
    'SwSTEP 2.0',
    'SolidWorks 2019',
    '' );
FILE_SCHEMA (( 'CONFIG_CONTROL_DESIGN' ));
ENDSEC;

DATA;
#1 = ADVANCED_FACE ( 'NONE', ( #30 ), #57, .T. ) ;
#2 = LINE ( 'NONE', #109, #21 ) ;
#3 = AXIS2_PLACEMENT_3D ( 'NONE', #301, #88, #207 ) ;
#4 = ORIENTED_EDGE ( 'NONE', *, *, #83, .T. ) ;
#5 = DIRECTION ( 'NONE',  ( -0.000000000000000000, -0.000000000000000000, -1.000000000000000000 ) ) ;
#6 = PRODUCT_RELATED_PRODUCT_CATEGORY ( 'detail', '', ( #177 ) ) ;
#7 = EDGE_LOOP ( 'NONE', ( #59, #275 ) ) ;
#8 = DIRECTION ( 'NONE',  ( 1.000000000000000000, 0.000000000000000000, -0.000000000000000000 ) ) ;
#9 = DIRECTION ( 'NONE',  ( 1.000000000000000000, 0.000000000000000000, 0.000000000000000000 ) ) ;
#10 = ORIENTED_EDGE ( 'NONE', *, *, #164, .F. ) ;
#11 = DIRECTION ( 'NONE',  ( 1.000000000000000000, 0.000000000000000000, 0.000000000000000000 ) ) ;
#12 = FACE_OUTER_BOUND ( 'NONE', #131, .T. ) ;
#13 = ORIENTED_EDGE ( 'NONE', *, *, #100, .T. ) ;
#14 = DIRECTION ( 'NONE',  ( 0.000000000000000000, 0.000000000000000000, 1.000000000000000000 ) ) ;
#15 = DIRECTION ( 'NONE',  ( 1.000000000000000000, 0.000000000000000000, 0.000000000000000000 ) ) ;
#16 = FACE_OUTER_BOUND ( 'NONE', #194, .T. ) ;
#17 = APPROVAL_ROLE ( '' ) ;
#18 = EDGE_CURVE ( 'NONE', #202, #231, #101, .T. ) ;
#19 = AXIS2_PLACEMENT_3D ( 'NONE', #155, #223, #53 ) ;
#20 = PERSON_AND_ORGANIZATION_ROLE ( 'creator' ) ;
#21 = VECTOR ( 'NONE', #160, 1000.000000000000000 ) ;
#22 = CALENDAR_DATE ( 2022, 7, 7 ) ;
#23 = ADVANCED_FACE ( 'NONE', ( #16 ), #112, .T. ) ;
#24 = EDGE_CURVE ( 'NONE', #149, #98, #264, .T. ) ;
#25 = DESIGN_CONTEXT ( 'detailed design', #193, 'design' ) ;
#26 = LINE ( 'NONE', #60, #290 ) ;
#27 = EDGE_LOOP ( 'NONE', ( #179, #133 ) ) ;
#28 = CARTESIAN_POINT ( 'NONE',  ( 0.000000000000000000, 0.000000000000000000, 505.0000000000000000 ) ) ;
#29 = CC_DESIGN_PERSON_AND_ORGANIZATION_ASSIGNMENT ( #192, #44, ( #177 ) ) ;
#30 = FACE_OUTER_BOUND ( 'NONE', #27, .T. ) ;
#31 = DIRECTION ( 'NONE',  ( 0.000000000000000000, 0.000000000000000000, 1.000000000000000000 ) ) ;
#32 = DIRECTION ( 'NONE',  ( 1.000000000000000000, 0.000000000000000000, 0.000000000000000000 ) ) ;
#33 = AXIS2_PLACEMENT_3D ( 'NONE', #226, #150, #106 ) ;
#34 = DIRECTION ( 'NONE',  ( 0.000000000000000000, 0.000000000000000000, 1.000000000000000000 ) ) ;
#35 = CARTESIAN_POINT ( 'NONE',  ( 0.000000000000000000, 0.000000000000000000, 5.000000000000000000 ) ) ;
#36 = DIRECTION ( 'NONE',  ( 1.000000000000000000, 0.000000000000000000, 0.000000000000000000 ) ) ;
#37 = ORIENTED_EDGE ( 'NONE', *, *, #218, .F. ) ;
#38 = CARTESIAN_POINT ( 'NONE',  ( -3.000000000000000444, 0.000000000000000000, 505.0000000000000000 ) ) ;
#39 = ADVANCED_FACE ( 'NONE', ( #84 ), #233, .F. ) ;
#40 = PERSON_AND_ORGANIZATION_ROLE ( 'creator' ) ;
#41 = DIRECTION ( 'NONE',  ( -0.000000000000000000, -0.000000000000000000, -1.000000000000000000 ) ) ;
#42 = APPROVAL_DATE_TIME ( #217, #170 ) ;
#43 = DIRECTION ( 'NONE',  ( 1.000000000000000000, 0.000000000000000000, 0.000000000000000000 ) ) ;
#44 = PERSON_AND_ORGANIZATION_ROLE ( 'design_owner' ) ;
#45 = CIRCLE ( 'NONE', #33, 3.200000000000000622 ) ;
#46 = CALENDAR_DATE ( 2022, 7, 7 ) ;
#47 = CIRCLE ( 'NONE', #224, 3.000000000000000444 ) ;
#48 = AXIS2_PLACEMENT_3D ( 'NONE', #28, #5, #183 ) ;
#49 = AXIS2_PLACEMENT_3D ( 'NONE', #273, #58, #86 ) ;
#50 = APPROVAL_PERSON_ORGANIZATION ( #87, #170, #214 ) ;
#51 = CC_DESIGN_DATE_AND_TIME_ASSIGNMENT ( #169, #62, ( #65 ) ) ;
#52 = ORIENTED_EDGE ( 'NONE', *, *, #238, .F. ) ;
#53 = DIRECTION ( 'NONE',  ( 1.000000000000000000, 0.000000000000000000, 0.000000000000000000 ) ) ;
#54 = VERTEX_POINT ( 'NONE', #248 ) ;
#55 = CARTESIAN_POINT ( 'NONE',  ( 0.000000000000000000, 0.000000000000000000, 5.000000000000000000 ) ) ;
#56 = DIRECTION ( 'NONE',  ( 0.000000000000000000, 0.000000000000000000, 1.000000000000000000 ) ) ;
#57 = PLANE ( 'NONE',  #196 ) ;
#58 = DIRECTION ( 'NONE',  ( 0.000000000000000000, -1.000000000000000000, 0.000000000000000000 ) ) ;
#59 = ORIENTED_EDGE ( 'NONE', *, *, #219, .T. ) ;
#60 = CARTESIAN_POINT ( 'NONE',  ( 6.000000000000000888, 7.347880794884120722E-16, 5.000000000000000000 ) ) ;
#61 = CARTESIAN_POINT ( 'NONE',  ( 3.000000000000000444, 3.673940397442060361E-16, 505.0000000000000000 ) ) ;
#62 = DATE_TIME_ROLE ( 'creation_date' ) ;
#63 = CARTESIAN_POINT ( 'NONE',  ( 0.000000000000000000, 0.000000000000000000, 5.000000000000000000 ) ) ;
#64 = AXIS2_PLACEMENT_3D ( 'NONE', #211, #254, #15 ) ;
#65 = PRODUCT_DEFINITION ( 'NEZNÁMÝ', '', #91, #25 ) ;
#66 = APPROVAL_STATUS ( 'not_yet_approved' ) ;
#67 = CARTESIAN_POINT ( 'NONE',  ( 0.000000000000000000, 0.000000000000000000, 0.000000000000000000 ) ) ;
#68 = AXIS2_PLACEMENT_3D ( 'NONE', #269, #56, #32 ) ;
#69 = ADVANCED_FACE ( 'NONE', ( #12 ), #279, .T. ) ;
#70 = AXIS2_PLACEMENT_3D ( 'NONE', #251, #135, #36 ) ;
#71 = AXIS2_PLACEMENT_3D ( 'NONE', #188, #234, #296 ) ;
#72 = ORIENTED_EDGE ( 'NONE', *, *, #284, .F. ) ;
#73 = LOCAL_TIME ( 14, 41, 38.00000000000000000, #168 ) ;
#74 = ORIENTED_EDGE ( 'NONE', *, *, #164, .T. ) ;
#75 = DIRECTION ( 'NONE',  ( 1.000000000000000000, 0.000000000000000000, 0.000000000000000000 ) ) ;
#76 = DIRECTION ( 'NONE',  ( -1.000000000000000000, 1.224646799147353207E-16, 0.000000000000000000 ) ) ;
#77 = VERTEX_POINT ( 'NONE', #189 ) ;
#78 =( LENGTH_UNIT ( ) NAMED_UNIT ( * ) SI_UNIT ( .MILLI., .METRE. ) );
#79 = DIRECTION ( 'NONE',  ( -0.000000000000000000, -0.000000000000000000, -1.000000000000000000 ) ) ;
#80 = CIRCLE ( 'NONE', #270, 6.000000000000000888 ) ;
#81 = VERTEX_POINT ( 'NONE', #38 ) ;
#82 = CARTESIAN_POINT ( 'NONE',  ( 0.000000000000000000, 0.000000000000000000, 5.199999999999982414 ) ) ;
#83 = EDGE_CURVE ( 'NONE', #81, #205, #152, .T. ) ;
#84 = FACE_OUTER_BOUND ( 'NONE', #247, .T. ) ;
#85 = EDGE_LOOP ( 'NONE', ( #267, #146, #52, #154 ) ) ;
#86 = DIRECTION ( 'NONE',  ( 0.000000000000000000, 0.000000000000000000, -1.000000000000000000 ) ) ;
#87 = PERSON_AND_ORGANIZATION ( #257, #244 ) ;
#88 = DIRECTION ( 'NONE',  ( -0.000000000000000000, -0.000000000000000000, -1.000000000000000000 ) ) ;
#89 = CC_DESIGN_PERSON_AND_ORGANIZATION_ASSIGNMENT ( #93, #255, ( #113 ) ) ;
#90 = AXIS2_PLACEMENT_3D ( 'NONE', #236, #41, #227 ) ;
#91 = PRODUCT_DEFINITION_FORMATION_WITH_SPECIFIED_SOURCE ( 'LIBOVOLNÝ', '', #177, .NOT_KNOWN. ) ;
#92 = DIRECTION ( 'NONE',  ( 0.000000000000000000, 0.000000000000000000, 1.000000000000000000 ) ) ;
#93 = PERSON_AND_ORGANIZATION ( #257, #244 ) ;
#94 = MECHANICAL_CONTEXT ( 'NONE', #158, 'mechanical' ) ;
#95 = EDGE_CURVE ( 'NONE', #77, #300, #175, .T. ) ;
#96 = ADVANCED_FACE ( 'NONE', ( #129 ), #303, .T. ) ;
#97 = AXIS2_PLACEMENT_3D ( 'NONE', #293, #277, #76 ) ;
#98 = VERTEX_POINT ( 'NONE', #156 ) ;
#99 = CARTESIAN_POINT ( 'NONE',  ( -6.000000000000000888, 0.000000000000000000, 0.000000000000000000 ) ) ;
#100 = EDGE_CURVE ( 'NONE', #300, #77, #80, .T. ) ;
#101 = CIRCLE ( 'NONE', #64, 6.000000000000000888 ) ;
#102 = VECTOR ( 'NONE', #204, 1000.000000000000000 ) ;
#103 = EDGE_LOOP ( 'NONE', ( #253, #199 ) ) ;
#104 = FACE_OUTER_BOUND ( 'NONE', #7, .T. ) ;
#105 = EDGE_LOOP ( 'NONE', ( #37, #74, #222, #176 ) ) ;
#106 = DIRECTION ( 'NONE',  ( 1.000000000000000000, 0.000000000000000000, 0.000000000000000000 ) ) ;
#107 = LINE ( 'NONE', #61, #102 ) ;
#108 = EDGE_LOOP ( 'NONE', ( #228, #271 ) ) ;
#109 = CARTESIAN_POINT ( 'NONE',  ( -6.000000000000000888, 0.000000000000000000, 5.000000000000000000 ) ) ;
#110 = DIRECTION ( 'NONE',  ( 1.000000000000000000, 0.000000000000000000, 0.000000000000000000 ) ) ;
#111 = ORIENTED_EDGE ( 'NONE', *, *, #252, .T. ) ;
#112 = CYLINDRICAL_SURFACE ( 'NONE', #3, 6.000000000000000888 ) ;
#113 = SECURITY_CLASSIFICATION ( '', '', #216 ) ;
#114 = APPROVAL_DATE_TIME ( #142, #304 ) ;
#115 = DIRECTION ( 'NONE',  ( -0.000000000000000000, -0.000000000000000000, -1.000000000000000000 ) ) ;
#116 = PERSON_AND_ORGANIZATION ( #257, #244 ) ;
#117 = CIRCLE ( 'NONE', #286, 3.000000000000000444 ) ;
#118 = LOCAL_TIME ( 14, 41, 38.00000000000000000, #240 ) ;
#119 = CALENDAR_DATE ( 2022, 7, 7 ) ;
#120 = EDGE_CURVE ( 'NONE', #205, #54, #288, .T. ) ;
#121 = AXIS2_PLACEMENT_3D ( 'NONE', #55, #250, #75 ) ;
#122 = APPROVAL ( #137, 'NEURÈENÝ' ) ;
#123 = FACE_BOUND ( 'NONE', #103, .T. ) ;
#124 = ORIENTED_EDGE ( 'NONE', *, *, #178, .F. ) ;
#125 = CARTESIAN_POINT ( 'NONE',  ( -6.000000000000000888, 0.000000000000000000, 5.000000000000000000 ) ) ;
#126 = EDGE_LOOP ( 'NONE', ( #10, #124, #4, #151 ) ) ;
#127 = CARTESIAN_POINT ( 'NONE',  ( 0.000000000000000000, 0.000000000000000000, 0.000000000000000000 ) ) ;
#128 = CC_DESIGN_APPROVAL ( #122, ( #113 ) ) ;
#129 = FACE_OUTER_BOUND ( 'NONE', #126, .T. ) ;
#130 = ADVANCED_FACE ( 'NONE', ( #181 ), #208, .F. ) ;
#131 = EDGE_LOOP ( 'NONE', ( #185, #266, #289, #13 ) ) ;
#132 = PLANE ( 'NONE',  #305 ) ;
#133 = ORIENTED_EDGE ( 'NONE', *, *, #218, .T. ) ;
#134 =( NAMED_UNIT ( * ) PLANE_ANGLE_UNIT ( ) SI_UNIT ( $, .RADIAN. ) );
#135 = DIRECTION ( 'NONE',  ( 0.000000000000000000, 0.000000000000000000, 1.000000000000000000 ) ) ;
#136 = VECTOR ( 'NONE', #115, 1000.000000000000000 ) ;
#137 = APPROVAL_STATUS ( 'not_yet_approved' ) ;
#138 = DIRECTION ( 'NONE',  ( 0.000000000000000000, 0.000000000000000000, 1.000000000000000000 ) ) ;
#139 = CIRCLE ( 'NONE', #281, 3.000000000000000444 ) ;
#140 = PERSON_AND_ORGANIZATION ( #257, #244 ) ;
#141 = CALENDAR_DATE ( 2022, 7, 7 ) ;
#142 = DATE_AND_TIME ( #141, #118 ) ;
#143 = UNCERTAINTY_MEASURE_WITH_UNIT (LENGTH_MEASURE( 1.000000000000000082E-05 ), #78, 'distance_accuracy_value', 'NONE');
#144 = APPROVAL_PERSON_ORGANIZATION ( #282, #304, #17 ) ;
#145 = DATE_TIME_ROLE ( 'classification_date' ) ;
#146 = ORIENTED_EDGE ( 'NONE', *, *, #120, .T. ) ;
#147 = PRODUCT_DEFINITION_SHAPE ( 'NONE', 'NONE',  #65 ) ;
#148 = CC_DESIGN_DATE_AND_TIME_ASSIGNMENT ( #283, #145, ( #113 ) ) ;
#149 = VERTEX_POINT ( 'NONE', #230 ) ;
#150 = DIRECTION ( 'NONE',  ( -0.000000000000000000, -0.000000000000000000, -1.000000000000000000 ) ) ;
#151 = ORIENTED_EDGE ( 'NONE', *, *, #287, .T. ) ;
#152 = LINE ( 'NONE', #163, #136 ) ;
#153 = CIRCLE ( 'NONE', #19, 6.000000000000000888 ) ;
#154 = ORIENTED_EDGE ( 'NONE', *, *, #24, .F. ) ;
#155 = CARTESIAN_POINT ( 'NONE',  ( 0.000000000000000000, 0.000000000000000000, 5.000000000000000000 ) ) ;
#156 = CARTESIAN_POINT ( 'NONE',  ( 3.200000000000000622, 0.000000000000000000, 4.999999999999991118 ) ) ;
#157 = MANIFOLD_SOLID_BREP ( 'Zaoblit1', #166 ) ;
#158 = APPLICATION_CONTEXT ( 'configuration controlled 3d designs of mechanical parts and assemblies' ) ;
#159 = VERTEX_POINT ( 'NONE', #161 ) ;
#160 = DIRECTION ( 'NONE',  ( -0.000000000000000000, -0.000000000000000000, -1.000000000000000000 ) ) ;
#161 = CARTESIAN_POINT ( 'NONE',  ( 3.000000000000000444, 3.673940397442060361E-16, 505.0000000000000000 ) ) ;
#162 = PERSON_AND_ORGANIZATION ( #257, #244 ) ;
#163 = CARTESIAN_POINT ( 'NONE',  ( -3.000000000000000444, 0.000000000000000000, 505.0000000000000000 ) ) ;
#164 = EDGE_CURVE ( 'NONE', #159, #149, #107, .T. ) ;
#165 = APPLICATION_PROTOCOL_DEFINITION ( 'international standard', 'config_control_design', 1994, #193 ) ;
#166 = CLOSED_SHELL ( 'NONE', ( #130, #262, #23, #69, #265, #221, #96, #1, #39 ) ) ;
#167 = AXIS2_PLACEMENT_3D ( 'NONE', #67, #92, #43 ) ;
#168 = COORDINATED_UNIVERSAL_TIME_OFFSET ( 1, 0, .AHEAD. ) ;
#169 = DATE_AND_TIME ( #119, #174 ) ;
#170 = APPROVAL ( #239, 'NEURÈENÝ' ) ;
#171 = COORDINATED_UNIVERSAL_TIME_OFFSET ( 1, 0, .AHEAD. ) ;
#172 = APPROVAL_PERSON_ORGANIZATION ( #140, #122, #242 ) ;
#173 = CC_DESIGN_PERSON_AND_ORGANIZATION_ASSIGNMENT ( #116, #40, ( #65 ) ) ;
#174 = LOCAL_TIME ( 14, 41, 38.00000000000000000, #278 ) ;
#175 = CIRCLE ( 'NONE', #285, 6.000000000000000888 ) ;
#176 = ORIENTED_EDGE ( 'NONE', *, *, #83, .F. ) ;
#177 = PRODUCT ( 'f819', 'f819', '', ( #94 ) ) ;
#178 = EDGE_CURVE ( 'NONE', #81, #159, #191, .T. ) ;
#179 = ORIENTED_EDGE ( 'NONE', *, *, #178, .T. ) ;
#180 = DIRECTION ( 'NONE',  ( 1.000000000000000000, 0.000000000000000000, 0.000000000000000000 ) ) ;
#181 = FACE_OUTER_BOUND ( 'NONE', #85, .T. ) ;
#182 = ORIENTED_EDGE ( 'NONE', *, *, #272, .F. ) ;
#183 = DIRECTION ( 'NONE',  ( -1.000000000000000000, 0.000000000000000000, 0.000000000000000000 ) ) ;
#184 = AXIS2_PLACEMENT_3D ( 'NONE', #127, #268, #276 ) ;
#185 = ORIENTED_EDGE ( 'NONE', *, *, #252, .F. ) ;
#186 = DIRECTION ( 'NONE',  ( 1.000000000000000000, 0.000000000000000000, 0.000000000000000000 ) ) ;
#187 = DIRECTION ( 'NONE',  ( 0.000000000000000000, 0.000000000000000000, 1.000000000000000000 ) ) ;
#188 = CARTESIAN_POINT ( 'NONE',  ( 0.000000000000000000, 0.000000000000000000, 5.199999999999982414 ) ) ;
#189 = CARTESIAN_POINT ( 'NONE',  ( 6.000000000000000888, 7.347880794884120722E-16, 0.000000000000000000 ) ) ;
#190 = ADVANCED_BREP_SHAPE_REPRESENTATION ( 'f819', ( #157, #167 ), #241 ) ;
#191 = CIRCLE ( 'NONE', #70, 3.000000000000000444 ) ;
#192 = PERSON_AND_ORGANIZATION ( #257, #244 ) ;
#193 = APPLICATION_CONTEXT ( 'configuration controlled 3d designs of mechanical parts and assemblies' ) ;
#194 = EDGE_LOOP ( 'NONE', ( #209, #111, #245, #182 ) ) ;
#195 =( NAMED_UNIT ( * ) SI_UNIT ( $, .STERADIAN. ) SOLID_ANGLE_UNIT ( ) );
#196 = AXIS2_PLACEMENT_3D ( 'NONE', #249, #34, #297 ) ;
#197 = CC_DESIGN_PERSON_AND_ORGANIZATION_ASSIGNMENT ( #212, #306, ( #91 ) ) ;
#198 = LOCAL_TIME ( 14, 41, 38.00000000000000000, #171 ) ;
#199 = ORIENTED_EDGE ( 'NONE', *, *, #284, .T. ) ;
#200 = DIRECTION ( 'NONE',  ( -0.000000000000000000, -0.000000000000000000, -1.000000000000000000 ) ) ;
#201 = CARTESIAN_POINT ( 'NONE',  ( 0.000000000000000000, 0.000000000000000000, 0.000000000000000000 ) ) ;
#202 = VERTEX_POINT ( 'NONE', #299 ) ;
#203 = PLANE ( 'NONE',  #184 ) ;
#204 = DIRECTION ( 'NONE',  ( -0.000000000000000000, -0.000000000000000000, -1.000000000000000000 ) ) ;
#205 = VERTEX_POINT ( 'NONE', #206 ) ;
#206 = CARTESIAN_POINT ( 'NONE',  ( -3.000000000000000444, 0.000000000000000000, 5.199999999999982414 ) ) ;
#207 = DIRECTION ( 'NONE',  ( -1.000000000000000000, 0.000000000000000000, 0.000000000000000000 ) ) ;
#208 = TOROIDAL_SURFACE ( 'NONE', #68, 3.200000000000000622, 0.2000000000000000111 ) ;
#209 = ORIENTED_EDGE ( 'NONE', *, *, #18, .F. ) ;
#210 = EDGE_CURVE ( 'NONE', #149, #205, #47, .T. ) ;
#211 = CARTESIAN_POINT ( 'NONE',  ( 0.000000000000000000, 0.000000000000000000, 5.000000000000000000 ) ) ;
#212 = PERSON_AND_ORGANIZATION ( #257, #244 ) ;
#213 = DIRECTION ( 'NONE',  ( -1.000000000000000000, 0.000000000000000000, 0.000000000000000000 ) ) ;
#214 = APPROVAL_ROLE ( '' ) ;
#215 = CC_DESIGN_SECURITY_CLASSIFICATION ( #113, ( #91 ) ) ;
#216 = SECURITY_CLASSIFICATION_LEVEL ( 'unclassified' ) ;
#217 = DATE_AND_TIME ( #258, #263 ) ;
#218 = EDGE_CURVE ( 'NONE', #159, #81, #117, .T. ) ;
#219 = EDGE_CURVE ( 'NONE', #231, #202, #153, .T. ) ;
#220 = DIRECTION ( 'NONE',  ( 0.000000000000000000, 0.000000000000000000, 1.000000000000000000 ) ) ;
#221 = ADVANCED_FACE ( 'NONE', ( #246 ), #203, .F. ) ;
#222 = ORIENTED_EDGE ( 'NONE', *, *, #210, .T. ) ;
#223 = DIRECTION ( 'NONE',  ( 0.000000000000000000, 0.000000000000000000, 1.000000000000000000 ) ) ;
#224 = AXIS2_PLACEMENT_3D ( 'NONE', #82, #14, #186 ) ;
#225 = ORIENTED_EDGE ( 'NONE', *, *, #120, .F. ) ;
#226 = CARTESIAN_POINT ( 'NONE',  ( 0.000000000000000000, 0.000000000000000000, 5.000000000000000000 ) ) ;
#227 = DIRECTION ( 'NONE',  ( -1.000000000000000000, 0.000000000000000000, 0.000000000000000000 ) ) ;
#228 = ORIENTED_EDGE ( 'NONE', *, *, #100, .F. ) ;
#229 = DIRECTION ( 'NONE',  ( 0.000000000000000000, 0.000000000000000000, 1.000000000000000000 ) ) ;
#230 = CARTESIAN_POINT ( 'NONE',  ( 3.000000000000000444, 3.673940397442060361E-16, 5.199999999999982414 ) ) ;
#231 = VERTEX_POINT ( 'NONE', #125 ) ;
#232 = CARTESIAN_POINT ( 'NONE',  ( 0.000000000000000000, 0.000000000000000000, 505.0000000000000000 ) ) ;
#233 = TOROIDAL_SURFACE ( 'NONE', #71, 3.200000000000000622, 0.2000000000000000111 ) ;
#234 = DIRECTION ( 'NONE',  ( 0.000000000000000000, 0.000000000000000000, 1.000000000000000000 ) ) ;
#235 = APPROVAL_DATE_TIME ( #260, #122 ) ;
#236 = CARTESIAN_POINT ( 'NONE',  ( 0.000000000000000000, 0.000000000000000000, 505.0000000000000000 ) ) ;
#237 = COORDINATED_UNIVERSAL_TIME_OFFSET ( 1, 0, .AHEAD. ) ;
#238 = EDGE_CURVE ( 'NONE', #98, #54, #45, .T. ) ;
#239 = APPROVAL_STATUS ( 'not_yet_approved' ) ;
#240 = COORDINATED_UNIVERSAL_TIME_OFFSET ( 1, 0, .AHEAD. ) ;
#241 =( GEOMETRIC_REPRESENTATION_CONTEXT ( 3 ) GLOBAL_UNCERTAINTY_ASSIGNED_CONTEXT ( ( #143 ) ) GLOBAL_UNIT_ASSIGNED_CONTEXT ( ( #78, #134, #195 ) ) REPRESENTATION_CONTEXT ( 'NONE', 'WORKASPACE' ) );
#242 = APPROVAL_ROLE ( '' ) ;
#243 = CC_DESIGN_APPROVAL ( #170, ( #91 ) ) ;
#244 = ORGANIZATION ( 'NEURÈENÝ', 'NEURÈENÝ', '' ) ;
#245 = ORIENTED_EDGE ( 'NONE', *, *, #95, .T. ) ;
#246 = FACE_OUTER_BOUND ( 'NONE', #108, .T. ) ;
#247 = EDGE_LOOP ( 'NONE', ( #225, #291, #294, #72 ) ) ;
#248 = CARTESIAN_POINT ( 'NONE',  ( -3.200000000000000622, 3.918869757271530953E-16, 4.999999999999991118 ) ) ;
#249 = CARTESIAN_POINT ( 'NONE',  ( 0.000000000000000000, 0.000000000000000000, 505.0000000000000000 ) ) ;
#250 = DIRECTION ( 'NONE',  ( -0.000000000000000000, -0.000000000000000000, -1.000000000000000000 ) ) ;
#251 = CARTESIAN_POINT ( 'NONE',  ( 0.000000000000000000, 0.000000000000000000, 505.0000000000000000 ) ) ;
#252 = EDGE_CURVE ( 'NONE', #202, #77, #26, .T. ) ;
#253 = ORIENTED_EDGE ( 'NONE', *, *, #238, .T. ) ;
#254 = DIRECTION ( 'NONE',  ( 0.000000000000000000, 0.000000000000000000, 1.000000000000000000 ) ) ;
#255 = PERSON_AND_ORGANIZATION_ROLE ( 'classification_officer' ) ;
#256 = CARTESIAN_POINT ( 'NONE',  ( 0.000000000000000000, 0.000000000000000000, 0.000000000000000000 ) ) ;
#257 = PERSON ( 'NEURÈENÝ', 'NEURÈENÝ', 'NEURÈENÝ', ('NEURÈENÝ'), ('NEURÈENÝ'), ('NEURÈENÝ') ) ;
#258 = CALENDAR_DATE ( 2022, 7, 7 ) ;
#259 = CC_DESIGN_PERSON_AND_ORGANIZATION_ASSIGNMENT ( #162, #20, ( #91 ) ) ;
#260 = DATE_AND_TIME ( #22, #73 ) ;
#261 = CC_DESIGN_APPROVAL ( #304, ( #65 ) ) ;
#262 = ADVANCED_FACE ( 'NONE', ( #295 ), #292, .T. ) ;
#263 = LOCAL_TIME ( 14, 41, 38.00000000000000000, #237 ) ;
#264 = CIRCLE ( 'NONE', #49, 0.1999999999999996503 ) ;
#265 = ADVANCED_FACE ( 'NONE', ( #123, #104 ), #132, .T. ) ;
#266 = ORIENTED_EDGE ( 'NONE', *, *, #219, .F. ) ;
#267 = ORIENTED_EDGE ( 'NONE', *, *, #287, .F. ) ;
#268 = DIRECTION ( 'NONE',  ( 0.000000000000000000, 0.000000000000000000, 1.000000000000000000 ) ) ;
#269 = CARTESIAN_POINT ( 'NONE',  ( 0.000000000000000000, 0.000000000000000000, 5.199999999999982414 ) ) ;
#270 = AXIS2_PLACEMENT_3D ( 'NONE', #201, #138, #110 ) ;
#271 = ORIENTED_EDGE ( 'NONE', *, *, #95, .F. ) ;
#272 = EDGE_CURVE ( 'NONE', #231, #300, #2, .T. ) ;
#273 = CARTESIAN_POINT ( 'NONE',  ( 3.200000000000000622, 0.000000000000000000, 5.199999999999982414 ) ) ;
#274 = CIRCLE ( 'NONE', #121, 3.200000000000000622 ) ;
#275 = ORIENTED_EDGE ( 'NONE', *, *, #18, .T. ) ;
#276 = DIRECTION ( 'NONE',  ( 1.000000000000000000, 0.000000000000000000, -0.000000000000000000 ) ) ;
#277 = DIRECTION ( 'NONE',  ( 1.224646799147353207E-16, 1.000000000000000000, -0.000000000000000000 ) ) ;
#278 = COORDINATED_UNIVERSAL_TIME_OFFSET ( 1, 0, .AHEAD. ) ;
#279 = CYLINDRICAL_SURFACE ( 'NONE', #307, 6.000000000000000888 ) ;
#280 = APPLICATION_PROTOCOL_DEFINITION ( 'international standard', 'config_control_design', 1994, #158 ) ;
#281 = AXIS2_PLACEMENT_3D ( 'NONE', #298, #229, #180 ) ;
#282 = PERSON_AND_ORGANIZATION ( #257, #244 ) ;
#283 = DATE_AND_TIME ( #46, #198 ) ;
#284 = EDGE_CURVE ( 'NONE', #54, #98, #274, .T. ) ;
#285 = AXIS2_PLACEMENT_3D ( 'NONE', #256, #187, #9 ) ;
#286 = AXIS2_PLACEMENT_3D ( 'NONE', #232, #31, #11 ) ;
#287 = EDGE_CURVE ( 'NONE', #205, #149, #139, .T. ) ;
#288 = CIRCLE ( 'NONE', #97, 0.2000000000000000944 ) ;
#289 = ORIENTED_EDGE ( 'NONE', *, *, #272, .T. ) ;
#290 = VECTOR ( 'NONE', #200, 1000.000000000000000 ) ;
#291 = ORIENTED_EDGE ( 'NONE', *, *, #210, .F. ) ;
#292 = CYLINDRICAL_SURFACE ( 'NONE', #48, 3.000000000000000444 ) ;
#293 = CARTESIAN_POINT ( 'NONE',  ( -3.200000000000000622, 3.918869757271530953E-16, 5.199999999999982414 ) ) ;
#294 = ORIENTED_EDGE ( 'NONE', *, *, #24, .T. ) ;
#295 = FACE_OUTER_BOUND ( 'NONE', #105, .T. ) ;
#296 = DIRECTION ( 'NONE',  ( 1.000000000000000000, 0.000000000000000000, 0.000000000000000000 ) ) ;
#297 = DIRECTION ( 'NONE',  ( 1.000000000000000000, 0.000000000000000000, -0.000000000000000000 ) ) ;
#298 = CARTESIAN_POINT ( 'NONE',  ( 0.000000000000000000, 0.000000000000000000, 5.199999999999982414 ) ) ;
#299 = CARTESIAN_POINT ( 'NONE',  ( 6.000000000000000888, 7.347880794884120722E-16, 5.000000000000000000 ) ) ;
#300 = VERTEX_POINT ( 'NONE', #99 ) ;
#301 = CARTESIAN_POINT ( 'NONE',  ( 0.000000000000000000, 0.000000000000000000, 5.000000000000000000 ) ) ;
#302 = SHAPE_DEFINITION_REPRESENTATION ( #147, #190 ) ;
#303 = CYLINDRICAL_SURFACE ( 'NONE', #90, 3.000000000000000444 ) ;
#304 = APPROVAL ( #66, 'NEURÈENÝ' ) ;
#305 = AXIS2_PLACEMENT_3D ( 'NONE', #35, #220, #8 ) ;
#306 = PERSON_AND_ORGANIZATION_ROLE ( 'design_supplier' ) ;
#307 = AXIS2_PLACEMENT_3D ( 'NONE', #63, #79, #213 ) ;
ENDSEC;
END-ISO-10303-21;
