ISO-10303-21;
HEADER;
FILE_DESCRIPTION (( 'STEP AP203' ),
    '1' );
FILE_NAME ('d64b.STEP',
    '2022-07-07T12:43:19',
    ( '' ),
    ( '' ),
    'SwSTEP 2.0',
    'SolidWorks 2019',
    '' );
FILE_SCHEMA (( 'CONFIG_CONTROL_DESIGN' ));
ENDSEC;

DATA;
#1 = TOROIDAL_SURFACE ( 'NONE', #8, 2.949999999999999734, 0.2000000000000000111 ) ;
#2 = AXIS2_PLACEMENT_3D ( 'NONE', #274, #109, #183 ) ;
#3 = CARTESIAN_POINT ( 'NONE',  ( 0.000000000000000000, 0.000000000000000000, 3.000000000000000000 ) ) ;
#4 = EDGE_CURVE ( 'NONE', #307, #129, #240, .T. ) ;
#5 = ORIENTED_EDGE ( 'NONE', *, *, #290, .T. ) ;
#6 = ORIENTED_EDGE ( 'NONE', *, *, #210, .T. ) ;
#7 = FACE_OUTER_BOUND ( 'NONE', #222, .T. ) ;
#8 = AXIS2_PLACEMENT_3D ( 'NONE', #293, #219, #85 ) ;
#9 = DIRECTION ( 'NONE',  ( 0.000000000000000000, 0.000000000000000000, 1.000000000000000000 ) ) ;
#10 = LINE ( 'NONE', #66, #187 ) ;
#11 = CC_DESIGN_DATE_AND_TIME_ASSIGNMENT ( #77, #176, ( #126 ) ) ;
#12 = DIRECTION ( 'NONE',  ( 1.000000000000000000, 0.000000000000000000, -0.000000000000000000 ) ) ;
#13 = CARTESIAN_POINT ( 'NONE',  ( 0.000000000000000000, 0.000000000000000000, 318.0000000000000000 ) ) ;
#14 = APPROVAL_DATE_TIME ( #115, #151 ) ;
#15 = PERSON_AND_ORGANIZATION_ROLE ( 'design_owner' ) ;
#16 = CIRCLE ( 'NONE', #142, 2.750000000000000000 ) ;
#17 = CC_DESIGN_APPROVAL ( #122, ( #44 ) ) ;
#18 = DESIGN_CONTEXT ( 'detailed design', #190, 'design' ) ;
#19 = APPLICATION_PROTOCOL_DEFINITION ( 'international standard', 'config_control_design', 1994, #174 ) ;
#20 = DIRECTION ( 'NONE',  ( -0.000000000000000000, -0.000000000000000000, -1.000000000000000000 ) ) ;
#21 = ORIENTED_EDGE ( 'NONE', *, *, #133, .F. ) ;
#22 = DIRECTION ( 'NONE',  ( 1.000000000000000000, 0.000000000000000000, 0.000000000000000000 ) ) ;
#23 = CIRCLE ( 'NONE', #68, 0.2000000000000000944 ) ;
#24 = AXIS2_PLACEMENT_3D ( 'NONE', #140, #89, #43 ) ;
#25 = ORIENTED_EDGE ( 'NONE', *, *, #42, .F. ) ;
#26 = EDGE_CURVE ( 'NONE', #129, #257, #186, .T. ) ;
#27 = ORIENTED_EDGE ( 'NONE', *, *, #102, .F. ) ;
#28 = ORIENTED_EDGE ( 'NONE', *, *, #104, .F. ) ;
#29 = CARTESIAN_POINT ( 'NONE',  ( 0.000000000000000000, 0.000000000000000000, 0.000000000000000000 ) ) ;
#30 = ORIENTED_EDGE ( 'NONE', *, *, #156, .T. ) ;
#31 = APPROVAL_PERSON_ORGANIZATION ( #45, #151, #144 ) ;
#32 = DIRECTION ( 'NONE',  ( -0.000000000000000000, -0.000000000000000000, -1.000000000000000000 ) ) ;
#33 = ORIENTED_EDGE ( 'NONE', *, *, #210, .F. ) ;
#34 = APPROVAL_STATUS ( 'not_yet_approved' ) ;
#35 = VERTEX_POINT ( 'NONE', #136 ) ;
#36 = DIRECTION ( 'NONE',  ( 0.000000000000000000, 0.000000000000000000, 1.000000000000000000 ) ) ;
#37 = VECTOR ( 'NONE', #256, 1000.000000000000000 ) ;
#38 = ADVANCED_FACE ( 'NONE', ( #175 ), #246, .F. ) ;
#39 = PLANE ( 'NONE',  #285 ) ;
#40 = ADVANCED_BREP_SHAPE_REPRESENTATION ( 'd64b', ( #242, #116 ), #241 ) ;
#41 = DIRECTION ( 'NONE',  ( 1.224646799147353207E-16, 1.000000000000000000, -0.000000000000000000 ) ) ;
#42 = EDGE_CURVE ( 'NONE', #152, #81, #263, .T. ) ;
#43 = DIRECTION ( 'NONE',  ( 1.000000000000000000, 0.000000000000000000, 0.000000000000000000 ) ) ;
#44 = PRODUCT_DEFINITION ( 'NEZNÁMÝ', '', #62, #18 ) ;
#45 = PERSON_AND_ORGANIZATION ( #221, #46 ) ;
#46 = ORGANIZATION ( 'NEURÈENÝ', 'NEURÈENÝ', '' ) ;
#47 = CARTESIAN_POINT ( 'NONE',  ( 0.000000000000000000, 0.000000000000000000, 3.000000000000000000 ) ) ;
#48 = CARTESIAN_POINT ( 'NONE',  ( 0.000000000000000000, 0.000000000000000000, 318.0000000000000000 ) ) ;
#49 = COORDINATED_UNIVERSAL_TIME_OFFSET ( 1, 0, .AHEAD. ) ;
#50 = ORIENTED_EDGE ( 'NONE', *, *, #164, .F. ) ;
#51 = AXIS2_PLACEMENT_3D ( 'NONE', #299, #300, #226 ) ;
#52 = ADVANCED_FACE ( 'NONE', ( #7 ), #1, .F. ) ;
#53 = ORIENTED_EDGE ( 'NONE', *, *, #290, .F. ) ;
#54 = EDGE_LOOP ( 'NONE', ( #53, #50, #57, #119 ) ) ;
#55 = ADVANCED_FACE ( 'NONE', ( #260 ), #272, .T. ) ;
#56 = ORIENTED_EDGE ( 'NONE', *, *, #42, .T. ) ;
#57 = ORIENTED_EDGE ( 'NONE', *, *, #205, .T. ) ;
#58 = DIRECTION ( 'NONE',  ( 1.000000000000000000, 0.000000000000000000, 0.000000000000000000 ) ) ;
#59 = CARTESIAN_POINT ( 'NONE',  ( -2.949999999999999734, 3.612708057484692097E-16, 3.199999999999980638 ) ) ;
#60 = DIRECTION ( 'NONE',  ( 1.000000000000000000, 0.000000000000000000, -0.000000000000000000 ) ) ;
#61 = CIRCLE ( 'NONE', #147, 5.000000000000000000 ) ;
#62 = PRODUCT_DEFINITION_FORMATION_WITH_SPECIFIED_SOURCE ( 'LIBOVOLNÝ', '', #179, .NOT_KNOWN. ) ;
#63 = CARTESIAN_POINT ( 'NONE',  ( 2.949999999999999734, 0.000000000000000000, 2.999999999999990674 ) ) ;
#64 = DIRECTION ( 'NONE',  ( -0.000000000000000000, -0.000000000000000000, -1.000000000000000000 ) ) ;
#65 = ADVANCED_FACE ( 'NONE', ( #177 ), #287, .T. ) ;
#66 = CARTESIAN_POINT ( 'NONE',  ( -2.750000000000000000, 0.000000000000000000, 318.0000000000000000 ) ) ;
#67 = CC_DESIGN_DATE_AND_TIME_ASSIGNMENT ( #120, #91, ( #44 ) ) ;
#68 = AXIS2_PLACEMENT_3D ( 'NONE', #59, #41, #159 ) ;
#69 = PERSON_AND_ORGANIZATION ( #221, #46 ) ;
#70 = EDGE_CURVE ( 'NONE', #132, #149, #16, .T. ) ;
#71 =( NAMED_UNIT ( * ) PLANE_ANGLE_UNIT ( ) SI_UNIT ( $, .RADIAN. ) );
#72 = CC_DESIGN_PERSON_AND_ORGANIZATION_ASSIGNMENT ( #69, #209, ( #126 ) ) ;
#73 =( LENGTH_UNIT ( ) NAMED_UNIT ( * ) SI_UNIT ( .MILLI., .METRE. ) );
#74 = CIRCLE ( 'NONE', #231, 5.000000000000000000 ) ;
#75 = DIRECTION ( 'NONE',  ( 0.000000000000000000, -1.000000000000000000, 0.000000000000000000 ) ) ;
#76 = PLANE ( 'NONE',  #182 ) ;
#77 = DATE_AND_TIME ( #292, #169 ) ;
#78 = ORIENTED_EDGE ( 'NONE', *, *, #133, .T. ) ;
#79 = ORIENTED_EDGE ( 'NONE', *, *, #26, .F. ) ;
#80 = APPROVAL_DATE_TIME ( #135, #267 ) ;
#81 = VERTEX_POINT ( 'NONE', #223 ) ;
#82 = DIRECTION ( 'NONE',  ( -0.000000000000000000, -0.000000000000000000, -1.000000000000000000 ) ) ;
#83 = CIRCLE ( 'NONE', #125, 2.750000000000000000 ) ;
#84 = AXIS2_PLACEMENT_3D ( 'NONE', #162, #227, #229 ) ;
#85 = DIRECTION ( 'NONE',  ( 1.000000000000000000, 0.000000000000000000, 0.000000000000000000 ) ) ;
#86 = EDGE_CURVE ( 'NONE', #121, #152, #235, .T. ) ;
#87 = DIRECTION ( 'NONE',  ( 0.000000000000000000, 0.000000000000000000, 1.000000000000000000 ) ) ;
#88 = PRODUCT_RELATED_PRODUCT_CATEGORY ( 'detail', '', ( #179 ) ) ;
#89 = DIRECTION ( 'NONE',  ( 0.000000000000000000, 0.000000000000000000, 1.000000000000000000 ) ) ;
#90 = CARTESIAN_POINT ( 'NONE',  ( 2.750000000000000000, 3.367778697655221012E-16, 318.0000000000000000 ) ) ;
#91 = DATE_TIME_ROLE ( 'creation_date' ) ;
#92 = CC_DESIGN_APPROVAL ( #267, ( #126 ) ) ;
#93 = PERSON_AND_ORGANIZATION ( #221, #46 ) ;
#94 = DIRECTION ( 'NONE',  ( 0.000000000000000000, 0.000000000000000000, 1.000000000000000000 ) ) ;
#95 = PERSON_AND_ORGANIZATION ( #221, #46 ) ;
#96 = ORIENTED_EDGE ( 'NONE', *, *, #156, .F. ) ;
#97 = DIRECTION ( 'NONE',  ( 1.000000000000000000, 0.000000000000000000, 0.000000000000000000 ) ) ;
#98 = DIRECTION ( 'NONE',  ( 1.000000000000000000, 0.000000000000000000, 0.000000000000000000 ) ) ;
#99 = CC_DESIGN_APPROVAL ( #151, ( #62 ) ) ;
#100 = ORIENTED_EDGE ( 'NONE', *, *, #86, .F. ) ;
#101 = DIRECTION ( 'NONE',  ( 0.000000000000000000, 0.000000000000000000, 1.000000000000000000 ) ) ;
#102 = EDGE_CURVE ( 'NONE', #172, #307, #83, .T. ) ;
#103 = ORIENTED_EDGE ( 'NONE', *, *, #185, .T. ) ;
#104 = EDGE_CURVE ( 'NONE', #35, #121, #61, .T. ) ;
#105 = FACE_OUTER_BOUND ( 'NONE', #288, .T. ) ;
#106 = ADVANCED_FACE ( 'NONE', ( #105 ), #76, .T. ) ;
#107 = FACE_BOUND ( 'NONE', #220, .T. ) ;
#108 = CARTESIAN_POINT ( 'NONE',  ( -2.750000000000000000, 0.000000000000000000, 318.0000000000000000 ) ) ;
#109 = DIRECTION ( 'NONE',  ( -0.000000000000000000, -0.000000000000000000, -1.000000000000000000 ) ) ;
#110 = ADVANCED_FACE ( 'NONE', ( #301 ), #161, .T. ) ;
#111 = AXIS2_PLACEMENT_3D ( 'NONE', #29, #170, #296 ) ;
#112 = DIRECTION ( 'NONE',  ( -0.000000000000000000, -0.000000000000000000, -1.000000000000000000 ) ) ;
#113 = ADVANCED_FACE ( 'NONE', ( #107, #181 ), #39, .T. ) ;
#114 = DIRECTION ( 'NONE',  ( 1.000000000000000000, 0.000000000000000000, -0.000000000000000000 ) ) ;
#115 = DATE_AND_TIME ( #230, #225 ) ;
#116 = AXIS2_PLACEMENT_3D ( 'NONE', #118, #166, #22 ) ;
#117 = APPROVAL_DATE_TIME ( #255, #122 ) ;
#118 = CARTESIAN_POINT ( 'NONE',  ( 0.000000000000000000, 0.000000000000000000, 0.000000000000000000 ) ) ;
#119 = ORIENTED_EDGE ( 'NONE', *, *, #102, .T. ) ;
#120 = DATE_AND_TIME ( #171, #165 ) ;
#121 = VERTEX_POINT ( 'NONE', #206 ) ;
#122 = APPROVAL ( #216, 'NEURÈENÝ' ) ;
#123 = ORIENTED_EDGE ( 'NONE', *, *, #295, .F. ) ;
#124 = CARTESIAN_POINT ( 'NONE',  ( 2.750000000000000000, 3.367778697655221012E-16, 3.199999999999980638 ) ) ;
#125 = AXIS2_PLACEMENT_3D ( 'NONE', #158, #101, #98 ) ;
#126 = SECURITY_CLASSIFICATION ( '', '', #305 ) ;
#127 = COORDINATED_UNIVERSAL_TIME_OFFSET ( 1, 0, .AHEAD. ) ;
#128 = ORIENTED_EDGE ( 'NONE', *, *, #70, .F. ) ;
#129 = VERTEX_POINT ( 'NONE', #63 ) ;
#130 = ORIENTED_EDGE ( 'NONE', *, *, #205, .F. ) ;
#131 = SHAPE_DEFINITION_REPRESENTATION ( #243, #40 ) ;
#132 = VERTEX_POINT ( 'NONE', #90 ) ;
#133 = EDGE_CURVE ( 'NONE', #172, #257, #23, .T. ) ;
#134 = EDGE_LOOP ( 'NONE', ( #298, #291, #269, #56 ) ) ;
#135 = DATE_AND_TIME ( #270, #148 ) ;
#136 = CARTESIAN_POINT ( 'NONE',  ( 5.000000000000000000, 6.123233995736766282E-16, 3.000000000000000000 ) ) ;
#137 = AXIS2_PLACEMENT_3D ( 'NONE', #48, #82, #214 ) ;
#138 = CIRCLE ( 'NONE', #2, 2.949999999999999734 ) ;
#139 = CARTESIAN_POINT ( 'NONE',  ( 0.000000000000000000, 0.000000000000000000, 3.000000000000000000 ) ) ;
#140 = CARTESIAN_POINT ( 'NONE',  ( 0.000000000000000000, 0.000000000000000000, 0.000000000000000000 ) ) ;
#141 = LINE ( 'NONE', #278, #195 ) ;
#142 = AXIS2_PLACEMENT_3D ( 'NONE', #268, #196, #212 ) ;
#143 = DIRECTION ( 'NONE',  ( -1.000000000000000000, 0.000000000000000000, 0.000000000000000000 ) ) ;
#144 = APPROVAL_ROLE ( '' ) ;
#145 = CC_DESIGN_PERSON_AND_ORGANIZATION_ASSIGNMENT ( #211, #303, ( #44 ) ) ;
#146 = PERSON_AND_ORGANIZATION ( #221, #46 ) ;
#147 = AXIS2_PLACEMENT_3D ( 'NONE', #200, #193, #250 ) ;
#148 = LOCAL_TIME ( 14, 43, 19.00000000000000000, #217 ) ;
#149 = VERTEX_POINT ( 'NONE', #108 ) ;
#150 = DIRECTION ( 'NONE',  ( 1.000000000000000000, 0.000000000000000000, 0.000000000000000000 ) ) ;
#151 = APPROVAL ( #213, 'NEURÈENÝ' ) ;
#152 = VERTEX_POINT ( 'NONE', #204 ) ;
#153 = EDGE_LOOP ( 'NONE', ( #25, #96 ) ) ;
#154 = AXIS2_PLACEMENT_3D ( 'NONE', #155, #75, #262 ) ;
#155 = CARTESIAN_POINT ( 'NONE',  ( 2.949999999999999734, 0.000000000000000000, 3.199999999999980638 ) ) ;
#156 = EDGE_CURVE ( 'NONE', #81, #152, #254, .T. ) ;
#157 = EDGE_LOOP ( 'NONE', ( #27, #78, #79, #173 ) ) ;
#158 = CARTESIAN_POINT ( 'NONE',  ( 0.000000000000000000, 0.000000000000000000, 3.199999999999980638 ) ) ;
#159 = DIRECTION ( 'NONE',  ( -1.000000000000000000, 1.224646799147353207E-16, 0.000000000000000000 ) ) ;
#160 = CARTESIAN_POINT ( 'NONE',  ( 0.000000000000000000, 0.000000000000000000, 0.000000000000000000 ) ) ;
#161 = CYLINDRICAL_SURFACE ( 'NONE', #201, 2.750000000000000000 ) ;
#162 = CARTESIAN_POINT ( 'NONE',  ( 0.000000000000000000, 0.000000000000000000, 3.000000000000000000 ) ) ;
#163 = CYLINDRICAL_SURFACE ( 'NONE', #84, 5.000000000000000000 ) ;
#164 = EDGE_CURVE ( 'NONE', #149, #132, #289, .T. ) ;
#165 = LOCAL_TIME ( 14, 43, 19.00000000000000000, #279 ) ;
#166 = DIRECTION ( 'NONE',  ( 0.000000000000000000, 0.000000000000000000, 1.000000000000000000 ) ) ;
#167 = UNCERTAINTY_MEASURE_WITH_UNIT (LENGTH_MEASURE( 1.000000000000000082E-05 ), #73, 'distance_accuracy_value', 'NONE');
#168 = MECHANICAL_CONTEXT ( 'NONE', #174, 'mechanical' ) ;
#169 = LOCAL_TIME ( 14, 43, 19.00000000000000000, #127 ) ;
#170 = DIRECTION ( 'NONE',  ( 0.000000000000000000, 0.000000000000000000, 1.000000000000000000 ) ) ;
#171 = CALENDAR_DATE ( 2022, 7, 7 ) ;
#172 = VERTEX_POINT ( 'NONE', #184 ) ;
#173 = ORIENTED_EDGE ( 'NONE', *, *, #4, .F. ) ;
#174 = APPLICATION_CONTEXT ( 'configuration controlled 3d designs of mechanical parts and assemblies' ) ;
#175 = FACE_OUTER_BOUND ( 'NONE', #157, .T. ) ;
#176 = DATE_TIME_ROLE ( 'classification_date' ) ;
#177 = FACE_OUTER_BOUND ( 'NONE', #244, .T. ) ;
#178 = APPROVAL_PERSON_ORGANIZATION ( #294, #267, #249 ) ;
#179 = PRODUCT ( 'd64b', 'd64b', '', ( #168 ) ) ;
#180 = FACE_OUTER_BOUND ( 'NONE', #153, .T. ) ;
#181 = FACE_OUTER_BOUND ( 'NONE', #197, .T. ) ;
#182 = AXIS2_PLACEMENT_3D ( 'NONE', #276, #9, #114 ) ;
#183 = DIRECTION ( 'NONE',  ( 1.000000000000000000, 0.000000000000000000, 0.000000000000000000 ) ) ;
#184 = CARTESIAN_POINT ( 'NONE',  ( -2.750000000000000000, 0.000000000000000000, 3.199999999999980638 ) ) ;
#185 = EDGE_CURVE ( 'NONE', #35, #81, #141, .T. ) ;
#186 = CIRCLE ( 'NONE', #280, 2.949999999999999734 ) ;
#187 = VECTOR ( 'NONE', #64, 1000.000000000000000 ) ;
#188 = APPROVAL_ROLE ( '' ) ;
#189 = APPLICATION_PROTOCOL_DEFINITION ( 'international standard', 'config_control_design', 1994, #190 ) ;
#190 = APPLICATION_CONTEXT ( 'configuration controlled 3d designs of mechanical parts and assemblies' ) ;
#191 = DIRECTION ( 'NONE',  ( -0.000000000000000000, -0.000000000000000000, -1.000000000000000000 ) ) ;
#192 = AXIS2_PLACEMENT_3D ( 'NONE', #3, #20, #247 ) ;
#193 = DIRECTION ( 'NONE',  ( 0.000000000000000000, 0.000000000000000000, 1.000000000000000000 ) ) ;
#194 = VECTOR ( 'NONE', #32, 1000.000000000000000 ) ;
#195 = VECTOR ( 'NONE', #112, 1000.000000000000000 ) ;
#196 = DIRECTION ( 'NONE',  ( 0.000000000000000000, 0.000000000000000000, 1.000000000000000000 ) ) ;
#197 = EDGE_LOOP ( 'NONE', ( #239, #284 ) ) ;
#198 = CC_DESIGN_PERSON_AND_ORGANIZATION_ASSIGNMENT ( #146, #15, ( #179 ) ) ;
#199 = DIRECTION ( 'NONE',  ( 1.000000000000000000, 0.000000000000000000, 0.000000000000000000 ) ) ;
#200 = CARTESIAN_POINT ( 'NONE',  ( 0.000000000000000000, 0.000000000000000000, 3.000000000000000000 ) ) ;
#201 = AXIS2_PLACEMENT_3D ( 'NONE', #13, #224, #143 ) ;
#202 = CC_DESIGN_SECURITY_CLASSIFICATION ( #126, ( #62 ) ) ;
#203 = CARTESIAN_POINT ( 'NONE',  ( 0.000000000000000000, 0.000000000000000000, 3.000000000000000000 ) ) ;
#204 = CARTESIAN_POINT ( 'NONE',  ( -5.000000000000000000, 0.000000000000000000, 0.000000000000000000 ) ) ;
#205 = EDGE_CURVE ( 'NONE', #149, #172, #10, .T. ) ;
#206 = CARTESIAN_POINT ( 'NONE',  ( -5.000000000000000000, 0.000000000000000000, 3.000000000000000000 ) ) ;
#207 = PERSON_AND_ORGANIZATION_ROLE ( 'creator' ) ;
#208 = AXIS2_PLACEMENT_3D ( 'NONE', #237, #94, #97 ) ;
#209 = PERSON_AND_ORGANIZATION_ROLE ( 'classification_officer' ) ;
#210 = EDGE_CURVE ( 'NONE', #257, #129, #138, .T. ) ;
#211 = PERSON_AND_ORGANIZATION ( #221, #46 ) ;
#212 = DIRECTION ( 'NONE',  ( 1.000000000000000000, 0.000000000000000000, 0.000000000000000000 ) ) ;
#213 = APPROVAL_STATUS ( 'not_yet_approved' ) ;
#214 = DIRECTION ( 'NONE',  ( -1.000000000000000000, 0.000000000000000000, 0.000000000000000000 ) ) ;
#215 = ADVANCED_FACE ( 'NONE', ( #273 ), #163, .T. ) ;
#216 = APPROVAL_STATUS ( 'not_yet_approved' ) ;
#217 = COORDINATED_UNIVERSAL_TIME_OFFSET ( 1, 0, .AHEAD. ) ;
#218 = AXIS2_PLACEMENT_3D ( 'NONE', #160, #36, #60 ) ;
#219 = DIRECTION ( 'NONE',  ( 0.000000000000000000, 0.000000000000000000, 1.000000000000000000 ) ) ;
#220 = EDGE_LOOP ( 'NONE', ( #304, #6 ) ) ;
#221 = PERSON ( 'NEURÈENÝ', 'NEURÈENÝ', 'NEURÈENÝ', ('NEURÈENÝ'), ('NEURÈENÝ'), ('NEURÈENÝ') ) ;
#222 = EDGE_LOOP ( 'NONE', ( #21, #123, #266, #33 ) ) ;
#223 = CARTESIAN_POINT ( 'NONE',  ( 5.000000000000000000, 6.123233995736766282E-16, 0.000000000000000000 ) ) ;
#224 = DIRECTION ( 'NONE',  ( -0.000000000000000000, -0.000000000000000000, -1.000000000000000000 ) ) ;
#225 = LOCAL_TIME ( 14, 43, 19.00000000000000000, #261 ) ;
#226 = DIRECTION ( 'NONE',  ( 1.000000000000000000, 0.000000000000000000, 0.000000000000000000 ) ) ;
#227 = DIRECTION ( 'NONE',  ( -0.000000000000000000, -0.000000000000000000, -1.000000000000000000 ) ) ;
#228 = CC_DESIGN_PERSON_AND_ORGANIZATION_ASSIGNMENT ( #95, #207, ( #62 ) ) ;
#229 = DIRECTION ( 'NONE',  ( -1.000000000000000000, 0.000000000000000000, 0.000000000000000000 ) ) ;
#230 = CALENDAR_DATE ( 2022, 7, 7 ) ;
#231 = AXIS2_PLACEMENT_3D ( 'NONE', #139, #283, #150 ) ;
#232 = CARTESIAN_POINT ( 'NONE',  ( 2.750000000000000000, 3.367778697655221012E-16, 318.0000000000000000 ) ) ;
#233 = CC_DESIGN_PERSON_AND_ORGANIZATION_ASSIGNMENT ( #93, #258, ( #62 ) ) ;
#234 = CARTESIAN_POINT ( 'NONE',  ( 0.000000000000000000, 0.000000000000000000, 3.199999999999980638 ) ) ;
#235 = LINE ( 'NONE', #306, #194 ) ;
#236 = ORIENTED_EDGE ( 'NONE', *, *, #164, .T. ) ;
#237 = CARTESIAN_POINT ( 'NONE',  ( 0.000000000000000000, 0.000000000000000000, 3.199999999999980638 ) ) ;
#238 = DIRECTION ( 'NONE',  ( 0.000000000000000000, 0.000000000000000000, 1.000000000000000000 ) ) ;
#239 = ORIENTED_EDGE ( 'NONE', *, *, #259, .T. ) ;
#240 = CIRCLE ( 'NONE', #154, 0.2000000000000000944 ) ;
#241 =( GEOMETRIC_REPRESENTATION_CONTEXT ( 3 ) GLOBAL_UNCERTAINTY_ASSIGNED_CONTEXT ( ( #167 ) ) GLOBAL_UNIT_ASSIGNED_CONTEXT ( ( #73, #71, #302 ) ) REPRESENTATION_CONTEXT ( 'NONE', 'WORKASPACE' ) );
#242 = MANIFOLD_SOLID_BREP ( 'Zaoblit1', #275 ) ;
#243 = PRODUCT_DEFINITION_SHAPE ( 'NONE', 'NONE',  #44 ) ;
#244 = EDGE_LOOP ( 'NONE', ( #28, #103, #30, #100 ) ) ;
#245 = ORIENTED_EDGE ( 'NONE', *, *, #70, .T. ) ;
#246 = TOROIDAL_SURFACE ( 'NONE', #271, 2.949999999999999734, 0.2000000000000000111 ) ;
#247 = DIRECTION ( 'NONE',  ( -1.000000000000000000, 0.000000000000000000, 0.000000000000000000 ) ) ;
#248 = ORIENTED_EDGE ( 'NONE', *, *, #295, .T. ) ;
#249 = APPROVAL_ROLE ( '' ) ;
#250 = DIRECTION ( 'NONE',  ( 1.000000000000000000, 0.000000000000000000, 0.000000000000000000 ) ) ;
#251 = PLANE ( 'NONE',  #218 ) ;
#252 = ADVANCED_FACE ( 'NONE', ( #180 ), #251, .F. ) ;
#253 = CARTESIAN_POINT ( 'NONE',  ( -2.949999999999999734, 3.612708057484692097E-16, 2.999999999999990674 ) ) ;
#254 = CIRCLE ( 'NONE', #24, 5.000000000000000000 ) ;
#255 = DATE_AND_TIME ( #282, #264 ) ;
#256 = DIRECTION ( 'NONE',  ( -0.000000000000000000, -0.000000000000000000, -1.000000000000000000 ) ) ;
#257 = VERTEX_POINT ( 'NONE', #253 ) ;
#258 = PERSON_AND_ORGANIZATION_ROLE ( 'design_supplier' ) ;
#259 = EDGE_CURVE ( 'NONE', #121, #35, #74, .T. ) ;
#260 = FACE_OUTER_BOUND ( 'NONE', #54, .T. ) ;
#261 = COORDINATED_UNIVERSAL_TIME_OFFSET ( 1, 0, .AHEAD. ) ;
#262 = DIRECTION ( 'NONE',  ( 0.000000000000000000, 0.000000000000000000, -1.000000000000000000 ) ) ;
#263 = CIRCLE ( 'NONE', #111, 5.000000000000000000 ) ;
#264 = LOCAL_TIME ( 14, 43, 19.00000000000000000, #49 ) ;
#265 = EDGE_LOOP ( 'NONE', ( #128, #5, #248, #130 ) ) ;
#266 = ORIENTED_EDGE ( 'NONE', *, *, #4, .T. ) ;
#267 = APPROVAL ( #34, 'NEURÈENÝ' ) ;
#268 = CARTESIAN_POINT ( 'NONE',  ( 0.000000000000000000, 0.000000000000000000, 318.0000000000000000 ) ) ;
#269 = ORIENTED_EDGE ( 'NONE', *, *, #86, .T. ) ;
#270 = CALENDAR_DATE ( 2022, 7, 7 ) ;
#271 = AXIS2_PLACEMENT_3D ( 'NONE', #234, #238, #58 ) ;
#272 = CYLINDRICAL_SURFACE ( 'NONE', #137, 2.750000000000000000 ) ;
#273 = FACE_OUTER_BOUND ( 'NONE', #134, .T. ) ;
#274 = CARTESIAN_POINT ( 'NONE',  ( 0.000000000000000000, 0.000000000000000000, 3.000000000000000000 ) ) ;
#275 = CLOSED_SHELL ( 'NONE', ( #38, #110, #65, #215, #113, #252, #55, #106, #52 ) ) ;
#276 = CARTESIAN_POINT ( 'NONE',  ( 0.000000000000000000, 0.000000000000000000, 318.0000000000000000 ) ) ;
#277 = APPROVAL_PERSON_ORGANIZATION ( #286, #122, #188 ) ;
#278 = CARTESIAN_POINT ( 'NONE',  ( 5.000000000000000000, 6.123233995736766282E-16, 3.000000000000000000 ) ) ;
#279 = COORDINATED_UNIVERSAL_TIME_OFFSET ( 1, 0, .AHEAD. ) ;
#280 = AXIS2_PLACEMENT_3D ( 'NONE', #47, #191, #199 ) ;
#281 = LINE ( 'NONE', #232, #37 ) ;
#282 = CALENDAR_DATE ( 2022, 7, 7 ) ;
#283 = DIRECTION ( 'NONE',  ( 0.000000000000000000, 0.000000000000000000, 1.000000000000000000 ) ) ;
#284 = ORIENTED_EDGE ( 'NONE', *, *, #104, .T. ) ;
#285 = AXIS2_PLACEMENT_3D ( 'NONE', #203, #87, #12 ) ;
#286 = PERSON_AND_ORGANIZATION ( #221, #46 ) ;
#287 = CYLINDRICAL_SURFACE ( 'NONE', #192, 5.000000000000000000 ) ;
#288 = EDGE_LOOP ( 'NONE', ( #236, #245 ) ) ;
#289 = CIRCLE ( 'NONE', #51, 2.750000000000000000 ) ;
#290 = EDGE_CURVE ( 'NONE', #132, #307, #281, .T. ) ;
#291 = ORIENTED_EDGE ( 'NONE', *, *, #259, .F. ) ;
#292 = CALENDAR_DATE ( 2022, 7, 7 ) ;
#293 = CARTESIAN_POINT ( 'NONE',  ( 0.000000000000000000, 0.000000000000000000, 3.199999999999980638 ) ) ;
#294 = PERSON_AND_ORGANIZATION ( #221, #46 ) ;
#295 = EDGE_CURVE ( 'NONE', #307, #172, #297, .T. ) ;
#296 = DIRECTION ( 'NONE',  ( 1.000000000000000000, 0.000000000000000000, 0.000000000000000000 ) ) ;
#297 = CIRCLE ( 'NONE', #208, 2.750000000000000000 ) ;
#298 = ORIENTED_EDGE ( 'NONE', *, *, #185, .F. ) ;
#299 = CARTESIAN_POINT ( 'NONE',  ( 0.000000000000000000, 0.000000000000000000, 318.0000000000000000 ) ) ;
#300 = DIRECTION ( 'NONE',  ( 0.000000000000000000, 0.000000000000000000, 1.000000000000000000 ) ) ;
#301 = FACE_OUTER_BOUND ( 'NONE', #265, .T. ) ;
#302 =( NAMED_UNIT ( * ) SI_UNIT ( $, .STERADIAN. ) SOLID_ANGLE_UNIT ( ) );
#303 = PERSON_AND_ORGANIZATION_ROLE ( 'creator' ) ;
#304 = ORIENTED_EDGE ( 'NONE', *, *, #26, .T. ) ;
#305 = SECURITY_CLASSIFICATION_LEVEL ( 'unclassified' ) ;
#306 = CARTESIAN_POINT ( 'NONE',  ( -5.000000000000000000, 0.000000000000000000, 3.000000000000000000 ) ) ;
#307 = VERTEX_POINT ( 'NONE', #124 ) ;
ENDSEC;
END-ISO-10303-21;
