ISO-10303-21;
HEADER;
FILE_DESCRIPTION (( 'STEP AP203' ),
    '1' );
FILE_NAME ('d97d.STEP',
    '2022-07-07T12:31:13',
    ( '' ),
    ( '' ),
    'SwSTEP 2.0',
    'SolidWorks 2019',
    '' );
FILE_SCHEMA (( 'CONFIG_CONTROL_DESIGN' ));
ENDSEC;

DATA;
#1 = CARTESIAN_POINT ( 'NONE',  ( 0.000000000000000000, 0.000000000000000000, 5.200000000000009948 ) ) ;
#2 = DIRECTION ( 'NONE',  ( -0.000000000000000000, -0.000000000000000000, -1.000000000000000000 ) ) ;
#3 = ADVANCED_FACE ( 'NONE', ( #186, #250 ), #228, .T. ) ;
#4 = PRODUCT_DEFINITION_SHAPE ( 'NONE', 'NONE',  #24 ) ;
#5 = FACE_OUTER_BOUND ( 'NONE', #96, .T. ) ;
#6 = AXIS2_PLACEMENT_3D ( 'NONE', #284, #259, #154 ) ;
#7 = CARTESIAN_POINT ( 'NONE',  ( 4.250000000000000000, 5.204748896376250699E-16, 205.0000000000000284 ) ) ;
#8 = EDGE_CURVE ( 'NONE', #252, #65, #14, .T. ) ;
#9 = DIRECTION ( 'NONE',  ( 0.000000000000000000, 0.000000000000000000, 1.000000000000000000 ) ) ;
#10 = PRODUCT ( 'd97d', 'd97d', '', ( #266 ) ) ;
#11 = APPROVAL ( #200, 'NEURÈENÝ' ) ;
#12 = SHAPE_DEFINITION_REPRESENTATION ( #4, #142 ) ;
#13 = COORDINATED_UNIVERSAL_TIME_OFFSET ( 1, 0, .AHEAD. ) ;
#14 = CIRCLE ( 'NONE', #303, 4.450000000000000178 ) ;
#15 = VERTEX_POINT ( 'NONE', #212 ) ;
#16 = CALENDAR_DATE ( 2022, 7, 7 ) ;
#17 = ORIENTED_EDGE ( 'NONE', *, *, #79, .T. ) ;
#18 = CC_DESIGN_DATE_AND_TIME_ASSIGNMENT ( #21, #41, ( #24 ) ) ;
#19 = CARTESIAN_POINT ( 'NONE',  ( 0.000000000000000000, 0.000000000000000000, 0.000000000000000000 ) ) ;
#20 = ORIENTED_EDGE ( 'NONE', *, *, #227, .T. ) ;
#21 = DATE_AND_TIME ( #246, #62 ) ;
#22 = EDGE_CURVE ( 'NONE', #65, #252, #30, .T. ) ;
#23 = EDGE_LOOP ( 'NONE', ( #138, #86, #273, #178 ) ) ;
#24 = PRODUCT_DEFINITION ( 'NEZNÁMÝ', '', #269, #243 ) ;
#25 = DIRECTION ( 'NONE',  ( -0.000000000000000000, -0.000000000000000000, -1.000000000000000000 ) ) ;
#26 = DIRECTION ( 'NONE',  ( 0.000000000000000000, 0.000000000000000000, 1.000000000000000000 ) ) ;
#27 = ORIENTED_EDGE ( 'NONE', *, *, #151, .F. ) ;
#28 = DIRECTION ( 'NONE',  ( 1.000000000000000000, 0.000000000000000000, -0.000000000000000000 ) ) ;
#29 = DIRECTION ( 'NONE',  ( 1.000000000000000000, 0.000000000000000000, 0.000000000000000000 ) ) ;
#30 = CIRCLE ( 'NONE', #114, 4.450000000000000178 ) ;
#31 = VECTOR ( 'NONE', #279, 1000.000000000000000 ) ;
#32 = CARTESIAN_POINT ( 'NONE',  ( -4.250000000000000000, 0.000000000000000000, 5.200000000000009948 ) ) ;
#33 = DIRECTION ( 'NONE',  ( 0.000000000000000000, 0.000000000000000000, 1.000000000000000000 ) ) ;
#34 = DIRECTION ( 'NONE',  ( 0.000000000000000000, 0.000000000000000000, 1.000000000000000000 ) ) ;
#35 = PRODUCT_RELATED_PRODUCT_CATEGORY ( 'detail', '', ( #10 ) ) ;
#36 = COORDINATED_UNIVERSAL_TIME_OFFSET ( 1, 0, .AHEAD. ) ;
#37 = CC_DESIGN_SECURITY_CLASSIFICATION ( #111, ( #269 ) ) ;
#38 = VERTEX_POINT ( 'NONE', #121 ) ;
#39 = DATE_TIME_ROLE ( 'classification_date' ) ;
#40 = ORIENTED_EDGE ( 'NONE', *, *, #148, .F. ) ;
#41 = DATE_TIME_ROLE ( 'creation_date' ) ;
#42 = AXIS2_PLACEMENT_3D ( 'NONE', #19, #180, #177 ) ;
#43 = PERSON_AND_ORGANIZATION_ROLE ( 'design_owner' ) ;
#44 = ORIENTED_EDGE ( 'NONE', *, *, #76, .F. ) ;
#45 = EDGE_CURVE ( 'NONE', #15, #131, #75, .T. ) ;
#46 = CIRCLE ( 'NONE', #103, 4.250000000000000000 ) ;
#47 = ORIENTED_EDGE ( 'NONE', *, *, #22, .F. ) ;
#48 = EDGE_CURVE ( 'NONE', #15, #38, #72, .T. ) ;
#49 = EDGE_LOOP ( 'NONE', ( #68, #20, #91, #44 ) ) ;
#50 = DIRECTION ( 'NONE',  ( 1.000000000000000000, 0.000000000000000000, 0.000000000000000000 ) ) ;
#51 = CYLINDRICAL_SURFACE ( 'NONE', #294, 7.000000000000000000 ) ;
#52 = TOROIDAL_SURFACE ( 'NONE', #299, 4.450000000000000178, 0.2000000000000000111 ) ;
#53 = ORIENTED_EDGE ( 'NONE', *, *, #290, .T. ) ;
#54 = CARTESIAN_POINT ( 'NONE',  ( 0.000000000000000000, 0.000000000000000000, 5.000000000000000000 ) ) ;
#55 = CC_DESIGN_APPROVAL ( #268, ( #24 ) ) ;
#56 = FACE_OUTER_BOUND ( 'NONE', #293, .T. ) ;
#57 = DIRECTION ( 'NONE',  ( 1.000000000000000000, 0.000000000000000000, 0.000000000000000000 ) ) ;
#58 = DIRECTION ( 'NONE',  ( 1.000000000000000000, 0.000000000000000000, 0.000000000000000000 ) ) ;
#59 = DIRECTION ( 'NONE',  ( 0.000000000000000000, 0.000000000000000000, 1.000000000000000000 ) ) ;
#60 = DATE_AND_TIME ( #85, #229 ) ;
#61 = APPLICATION_PROTOCOL_DEFINITION ( 'international standard', 'config_control_design', 1994, #222 ) ;
#62 = LOCAL_TIME ( 14, 31, 13.00000000000000000, #13 ) ;
#63 = APPROVAL_DATE_TIME ( #132, #11 ) ;
#64 = CIRCLE ( 'NONE', #136, 7.000000000000000000 ) ;
#65 = VERTEX_POINT ( 'NONE', #144 ) ;
#66 = COORDINATED_UNIVERSAL_TIME_OFFSET ( 1, 0, .AHEAD. ) ;
#67 = EDGE_LOOP ( 'NONE', ( #245, #27 ) ) ;
#68 = ORIENTED_EDGE ( 'NONE', *, *, #79, .F. ) ;
#69 = CC_DESIGN_PERSON_AND_ORGANIZATION_ASSIGNMENT ( #128, #159, ( #24 ) ) ;
#70 = ORIENTED_EDGE ( 'NONE', *, *, #45, .T. ) ;
#71 = CIRCLE ( 'NONE', #185, 4.250000000000000000 ) ;
#72 = LINE ( 'NONE', #188, #150 ) ;
#73 = CARTESIAN_POINT ( 'NONE',  ( 0.000000000000000000, 0.000000000000000000, 0.000000000000000000 ) ) ;
#74 = DIRECTION ( 'NONE',  ( 0.000000000000000000, 0.000000000000000000, 1.000000000000000000 ) ) ;
#75 = CIRCLE ( 'NONE', #97, 7.000000000000000000 ) ;
#76 = EDGE_CURVE ( 'NONE', #301, #252, #257, .T. ) ;
#77 = CARTESIAN_POINT ( 'NONE',  ( 0.000000000000000000, 0.000000000000000000, 5.000000000000000000 ) ) ;
#78 = CARTESIAN_POINT ( 'NONE',  ( 0.000000000000000000, 0.000000000000000000, 0.000000000000000000 ) ) ;
#79 = EDGE_CURVE ( 'NONE', #163, #301, #71, .T. ) ;
#80 = MANIFOLD_SOLID_BREP ( 'Zaoblit1', #118 ) ;
#81 = DIRECTION ( 'NONE',  ( 0.000000000000000000, 0.000000000000000000, 1.000000000000000000 ) ) ;
#82 = DIRECTION ( 'NONE',  ( -0.000000000000000000, -0.000000000000000000, -1.000000000000000000 ) ) ;
#83 = AXIS2_PLACEMENT_3D ( 'NONE', #1, #33, #237 ) ;
#84 = DATE_AND_TIME ( #16, #241 ) ;
#85 = CALENDAR_DATE ( 2022, 7, 7 ) ;
#86 = ORIENTED_EDGE ( 'NONE', *, *, #104, .F. ) ;
#87 = CC_DESIGN_DATE_AND_TIME_ASSIGNMENT ( #60, #39, ( #111 ) ) ;
#88 = EDGE_LOOP ( 'NONE', ( #198, #247, #189, #199 ) ) ;
#89 = DIRECTION ( 'NONE',  ( 1.000000000000000000, 0.000000000000000000, 0.000000000000000000 ) ) ;
#90 = ADVANCED_FACE ( 'NONE', ( #230 ), #233, .F. ) ;
#91 = ORIENTED_EDGE ( 'NONE', *, *, #8, .F. ) ;
#92 = PERSON ( 'NEURÈENÝ', 'NEURÈENÝ', 'NEURÈENÝ', ('NEURÈENÝ'), ('NEURÈENÝ'), ('NEURÈENÝ') ) ;
#93 = DIRECTION ( 'NONE',  ( 1.000000000000000000, 0.000000000000000000, 0.000000000000000000 ) ) ;
#94 = DIRECTION ( 'NONE',  ( 1.000000000000000000, 0.000000000000000000, 0.000000000000000000 ) ) ;
#95 = ADVANCED_FACE ( 'NONE', ( #277 ), #52, .F. ) ;
#96 = EDGE_LOOP ( 'NONE', ( #140, #225, #267, #298 ) ) ;
#97 = AXIS2_PLACEMENT_3D ( 'NONE', #116, #210, #94 ) ;
#98 = EDGE_CURVE ( 'NONE', #115, #163, #117, .T. ) ;
#99 = PLANE ( 'NONE',  #271 ) ;
#100 = DIRECTION ( 'NONE',  ( -0.000000000000000000, -0.000000000000000000, -1.000000000000000000 ) ) ;
#101 = ADVANCED_FACE ( 'NONE', ( #255 ), #51, .T. ) ;
#102 = DIRECTION ( 'NONE',  ( -1.000000000000000000, 0.000000000000000000, 0.000000000000000000 ) ) ;
#103 = AXIS2_PLACEMENT_3D ( 'NONE', #261, #192, #57 ) ;
#104 = EDGE_CURVE ( 'NONE', #131, #15, #208, .T. ) ;
#105 = DIRECTION ( 'NONE',  ( -1.000000000000000000, 0.000000000000000000, 0.000000000000000000 ) ) ;
#106 = FACE_OUTER_BOUND ( 'NONE', #88, .T. ) ;
#107 =( LENGTH_UNIT ( ) NAMED_UNIT ( * ) SI_UNIT ( .MILLI., .METRE. ) );
#108 = PERSON_AND_ORGANIZATION_ROLE ( 'classification_officer' ) ;
#109 = APPROVAL_ROLE ( '' ) ;
#110 = ORIENTED_EDGE ( 'NONE', *, *, #227, .F. ) ;
#111 = SECURITY_CLASSIFICATION ( '', '', #274 ) ;
#112 = PERSON_AND_ORGANIZATION ( #92, #276 ) ;
#113 = PERSON_AND_ORGANIZATION ( #92, #276 ) ;
#114 = AXIS2_PLACEMENT_3D ( 'NONE', #168, #306, #164 ) ;
#115 = VERTEX_POINT ( 'NONE', #216 ) ;
#116 = CARTESIAN_POINT ( 'NONE',  ( 0.000000000000000000, 0.000000000000000000, 5.000000000000000000 ) ) ;
#117 = LINE ( 'NONE', #187, #31 ) ;
#118 = CLOSED_SHELL ( 'NONE', ( #95, #166, #157, #101, #3, #90, #283, #203, #265 ) ) ;
#119 = DIRECTION ( 'NONE',  ( 0.000000000000000000, 0.000000000000000000, 1.000000000000000000 ) ) ;
#120 = APPROVAL_PERSON_ORGANIZATION ( #270, #11, #109 ) ;
#121 = CARTESIAN_POINT ( 'NONE',  ( 7.000000000000000000, 8.572527594031473190E-16, 0.000000000000000000 ) ) ;
#122 = AXIS2_PLACEMENT_3D ( 'NONE', #173, #100, #213 ) ;
#123 = DIRECTION ( 'NONE',  ( 0.000000000000000000, 0.000000000000000000, 1.000000000000000000 ) ) ;
#124 = AXIS2_PLACEMENT_3D ( 'NONE', #204, #119, #281 ) ;
#125 = CARTESIAN_POINT ( 'NONE',  ( 0.000000000000000000, 0.000000000000000000, 205.0000000000000284 ) ) ;
#126 = CARTESIAN_POINT ( 'NONE',  ( 0.000000000000000000, 0.000000000000000000, 205.0000000000000284 ) ) ;
#127 = DIRECTION ( 'NONE',  ( -0.000000000000000000, -0.000000000000000000, -1.000000000000000000 ) ) ;
#128 = PERSON_AND_ORGANIZATION ( #92, #276 ) ;
#129 = APPROVAL_STATUS ( 'not_yet_approved' ) ;
#130 = APPROVAL_ROLE ( '' ) ;
#131 = VERTEX_POINT ( 'NONE', #214 ) ;
#132 = DATE_AND_TIME ( #295, #300 ) ;
#133 = CC_DESIGN_PERSON_AND_ORGANIZATION_ASSIGNMENT ( #155, #43, ( #10 ) ) ;
#134 = PERSON_AND_ORGANIZATION ( #92, #276 ) ;
#135 = ORIENTED_EDGE ( 'NONE', *, *, #170, .T. ) ;
#136 = AXIS2_PLACEMENT_3D ( 'NONE', #235, #9, #263 ) ;
#137 = ORIENTED_EDGE ( 'NONE', *, *, #22, .T. ) ;
#138 = ORIENTED_EDGE ( 'NONE', *, *, #48, .F. ) ;
#139 = AXIS2_PLACEMENT_3D ( 'NONE', #194, #81, #172 ) ;
#140 = ORIENTED_EDGE ( 'NONE', *, *, #170, .F. ) ;
#141 = CIRCLE ( 'NONE', #6, 0.1999999999999996503 ) ;
#142 = ADVANCED_BREP_SHAPE_REPRESENTATION ( 'd97d', ( #80, #42 ), #182 ) ;
#143 = VERTEX_POINT ( 'NONE', #260 ) ;
#144 = CARTESIAN_POINT ( 'NONE',  ( -4.450000000000000178, 5.449678256205721784E-16, 5.000000000000005329 ) ) ;
#145 = APPROVAL ( #201, 'NEURÈENÝ' ) ;
#146 = APPROVAL_PERSON_ORGANIZATION ( #134, #268, #224 ) ;
#147 = DIRECTION ( 'NONE',  ( 0.000000000000000000, 0.000000000000000000, 1.000000000000000000 ) ) ;
#148 = EDGE_CURVE ( 'NONE', #305, #301, #286, .T. ) ;
#149 = DIRECTION ( 'NONE',  ( 1.000000000000000000, 0.000000000000000000, 0.000000000000000000 ) ) ;
#150 = VECTOR ( 'NONE', #183, 1000.000000000000000 ) ;
#151 = EDGE_CURVE ( 'NONE', #38, #143, #64, .T. ) ;
#152 = CARTESIAN_POINT ( 'NONE',  ( 0.000000000000000000, 0.000000000000000000, 205.0000000000000284 ) ) ;
#153 = CARTESIAN_POINT ( 'NONE',  ( 4.250000000000000000, 5.204748896376250699E-16, 205.0000000000000284 ) ) ;
#154 = DIRECTION ( 'NONE',  ( -1.000000000000000000, 1.224646799147353454E-16, 0.000000000000000000 ) ) ;
#155 = PERSON_AND_ORGANIZATION ( #92, #276 ) ;
#156 = CC_DESIGN_APPROVAL ( #11, ( #269 ) ) ;
#157 = ADVANCED_FACE ( 'NONE', ( #106 ), #196, .T. ) ;
#158 = PERSON_AND_ORGANIZATION_ROLE ( 'creator' ) ;
#159 = PERSON_AND_ORGANIZATION_ROLE ( 'creator' ) ;
#160 = EDGE_LOOP ( 'NONE', ( #110, #278, #226, #47 ) ) ;
#161 = EDGE_LOOP ( 'NONE', ( #275, #70 ) ) ;
#162 = ORIENTED_EDGE ( 'NONE', *, *, #8, .T. ) ;
#163 = VERTEX_POINT ( 'NONE', #32 ) ;
#164 = DIRECTION ( 'NONE',  ( 1.000000000000000000, 0.000000000000000000, 0.000000000000000000 ) ) ;
#165 = LOCAL_TIME ( 14, 31, 13.00000000000000000, #66 ) ;
#166 = ADVANCED_FACE ( 'NONE', ( #5 ), #234, .T. ) ;
#167 = CARTESIAN_POINT ( 'NONE',  ( 0.000000000000000000, 0.000000000000000000, 5.000000000000000000 ) ) ;
#168 = CARTESIAN_POINT ( 'NONE',  ( 0.000000000000000000, 0.000000000000000000, 5.000000000000000000 ) ) ;
#169 = DIRECTION ( 'NONE',  ( -0.000000000000000000, -0.000000000000000000, -1.000000000000000000 ) ) ;
#170 = EDGE_CURVE ( 'NONE', #305, #115, #206, .T. ) ;
#171 = LINE ( 'NONE', #282, #176 ) ;
#172 = DIRECTION ( 'NONE',  ( 1.000000000000000000, 0.000000000000000000, 0.000000000000000000 ) ) ;
#173 = CARTESIAN_POINT ( 'NONE',  ( 0.000000000000000000, 0.000000000000000000, 205.0000000000000284 ) ) ;
#174 = EDGE_CURVE ( 'NONE', #131, #143, #171, .T. ) ;
#175 = COORDINATED_UNIVERSAL_TIME_OFFSET ( 1, 0, .AHEAD. ) ;
#176 = VECTOR ( 'NONE', #169, 1000.000000000000000 ) ;
#177 = DIRECTION ( 'NONE',  ( 1.000000000000000000, 0.000000000000000000, 0.000000000000000000 ) ) ;
#178 = ORIENTED_EDGE ( 'NONE', *, *, #251, .T. ) ;
#179 = CIRCLE ( 'NONE', #238, 7.000000000000000000 ) ;
#180 = DIRECTION ( 'NONE',  ( 0.000000000000000000, 0.000000000000000000, 1.000000000000000000 ) ) ;
#181 = EDGE_LOOP ( 'NONE', ( #162, #137 ) ) ;
#182 =( GEOMETRIC_REPRESENTATION_CONTEXT ( 3 ) GLOBAL_UNCERTAINTY_ASSIGNED_CONTEXT ( ( #296 ) ) GLOBAL_UNIT_ASSIGNED_CONTEXT ( ( #107, #244, #292 ) ) REPRESENTATION_CONTEXT ( 'NONE', 'WORKASPACE' ) );
#183 = DIRECTION ( 'NONE',  ( -0.000000000000000000, -0.000000000000000000, -1.000000000000000000 ) ) ;
#184 = CC_DESIGN_PERSON_AND_ORGANIZATION_ASSIGNMENT ( #223, #240, ( #269 ) ) ;
#185 = AXIS2_PLACEMENT_3D ( 'NONE', #280, #74, #50 ) ;
#186 = FACE_BOUND ( 'NONE', #181, .T. ) ;
#187 = CARTESIAN_POINT ( 'NONE',  ( -4.250000000000000000, 0.000000000000000000, 205.0000000000000284 ) ) ;
#188 = CARTESIAN_POINT ( 'NONE',  ( 7.000000000000000000, 8.572527594031473190E-16, 5.000000000000000000 ) ) ;
#189 = ORIENTED_EDGE ( 'NONE', *, *, #151, .T. ) ;
#190 = FACE_OUTER_BOUND ( 'NONE', #221, .T. ) ;
#191 = EDGE_CURVE ( 'NONE', #301, #163, #46, .T. ) ;
#192 = DIRECTION ( 'NONE',  ( 0.000000000000000000, 0.000000000000000000, 1.000000000000000000 ) ) ;
#193 = AXIS2_PLACEMENT_3D ( 'NONE', #54, #34, #58 ) ;
#194 = CARTESIAN_POINT ( 'NONE',  ( 0.000000000000000000, 0.000000000000000000, 205.0000000000000284 ) ) ;
#195 = CARTESIAN_POINT ( 'NONE',  ( 4.450000000000000178, 0.000000000000000000, 5.000000000000005329 ) ) ;
#196 = CYLINDRICAL_SURFACE ( 'NONE', #231, 7.000000000000000000 ) ;
#197 = APPLICATION_PROTOCOL_DEFINITION ( 'international standard', 'config_control_design', 1994, #272 ) ;
#198 = ORIENTED_EDGE ( 'NONE', *, *, #45, .F. ) ;
#199 = ORIENTED_EDGE ( 'NONE', *, *, #174, .F. ) ;
#200 = APPROVAL_STATUS ( 'not_yet_approved' ) ;
#201 = APPROVAL_STATUS ( 'not_yet_approved' ) ;
#202 = PERSON_AND_ORGANIZATION ( #92, #276 ) ;
#203 = ADVANCED_FACE ( 'NONE', ( #56 ), #99, .T. ) ;
#204 = CARTESIAN_POINT ( 'NONE',  ( 0.000000000000000000, 0.000000000000000000, 5.000000000000000000 ) ) ;
#205 = CARTESIAN_POINT ( 'NONE',  ( 4.450000000000000178, 0.000000000000000000, 5.200000000000009948 ) ) ;
#206 = CIRCLE ( 'NONE', #307, 4.250000000000000000 ) ;
#207 = AXIS2_PLACEMENT_3D ( 'NONE', #205, #254, #232 ) ;
#208 = CIRCLE ( 'NONE', #193, 7.000000000000000000 ) ;
#209 = CARTESIAN_POINT ( 'NONE',  ( 0.000000000000000000, 0.000000000000000000, 5.200000000000009948 ) ) ;
#210 = DIRECTION ( 'NONE',  ( 0.000000000000000000, 0.000000000000000000, 1.000000000000000000 ) ) ;
#211 = CIRCLE ( 'NONE', #139, 4.250000000000000000 ) ;
#212 = CARTESIAN_POINT ( 'NONE',  ( 7.000000000000000000, 8.572527594031473190E-16, 5.000000000000000000 ) ) ;
#213 = DIRECTION ( 'NONE',  ( -1.000000000000000000, 0.000000000000000000, 0.000000000000000000 ) ) ;
#214 = CARTESIAN_POINT ( 'NONE',  ( -7.000000000000000000, 0.000000000000000000, 5.000000000000000000 ) ) ;
#215 = DIRECTION ( 'NONE',  ( -0.000000000000000000, -0.000000000000000000, -1.000000000000000000 ) ) ;
#216 = CARTESIAN_POINT ( 'NONE',  ( -4.250000000000000000, 0.000000000000000000, 205.0000000000000284 ) ) ;
#217 = DIRECTION ( 'NONE',  ( -1.000000000000000000, 0.000000000000000000, 0.000000000000000000 ) ) ;
#218 = APPROVAL_DATE_TIME ( #84, #145 ) ;
#219 = CC_DESIGN_APPROVAL ( #145, ( #111 ) ) ;
#220 = APPROVAL_DATE_TIME ( #297, #268 ) ;
#221 = EDGE_LOOP ( 'NONE', ( #40, #302, #258, #17 ) ) ;
#222 = APPLICATION_CONTEXT ( 'configuration controlled 3d designs of mechanical parts and assemblies' ) ;
#223 = PERSON_AND_ORGANIZATION ( #92, #276 ) ;
#224 = APPROVAL_ROLE ( '' ) ;
#225 = ORIENTED_EDGE ( 'NONE', *, *, #148, .T. ) ;
#226 = ORIENTED_EDGE ( 'NONE', *, *, #76, .T. ) ;
#227 = EDGE_CURVE ( 'NONE', #163, #65, #141, .T. ) ;
#228 = PLANE ( 'NONE',  #124 ) ;
#229 = LOCAL_TIME ( 14, 31, 13.00000000000000000, #264 ) ;
#230 = FACE_OUTER_BOUND ( 'NONE', #67, .T. ) ;
#231 = AXIS2_PLACEMENT_3D ( 'NONE', #289, #2, #105 ) ;
#232 = DIRECTION ( 'NONE',  ( 0.000000000000000000, 0.000000000000000000, -1.000000000000000000 ) ) ;
#233 = PLANE ( 'NONE',  #285 ) ;
#234 = CYLINDRICAL_SURFACE ( 'NONE', #122, 4.250000000000000000 ) ;
#235 = CARTESIAN_POINT ( 'NONE',  ( 0.000000000000000000, 0.000000000000000000, 0.000000000000000000 ) ) ;
#236 = CYLINDRICAL_SURFACE ( 'NONE', #288, 4.250000000000000000 ) ;
#237 = DIRECTION ( 'NONE',  ( 1.000000000000000000, 0.000000000000000000, 0.000000000000000000 ) ) ;
#238 = AXIS2_PLACEMENT_3D ( 'NONE', #78, #147, #29 ) ;
#239 = DIRECTION ( 'NONE',  ( 1.000000000000000000, 0.000000000000000000, -0.000000000000000000 ) ) ;
#240 = PERSON_AND_ORGANIZATION_ROLE ( 'design_supplier' ) ;
#241 = LOCAL_TIME ( 14, 31, 13.00000000000000000, #36 ) ;
#242 = CALENDAR_DATE ( 2022, 7, 7 ) ;
#243 = DESIGN_CONTEXT ( 'detailed design', #272, 'design' ) ;
#244 =( NAMED_UNIT ( * ) PLANE_ANGLE_UNIT ( ) SI_UNIT ( $, .RADIAN. ) );
#245 = ORIENTED_EDGE ( 'NONE', *, *, #251, .F. ) ;
#246 = CALENDAR_DATE ( 2022, 7, 7 ) ;
#247 = ORIENTED_EDGE ( 'NONE', *, *, #48, .T. ) ;
#248 = APPROVAL_PERSON_ORGANIZATION ( #112, #145, #130 ) ;
#249 = CC_DESIGN_PERSON_AND_ORGANIZATION_ASSIGNMENT ( #202, #108, ( #111 ) ) ;
#250 = FACE_OUTER_BOUND ( 'NONE', #161, .T. ) ;
#251 = EDGE_CURVE ( 'NONE', #143, #38, #179, .T. ) ;
#252 = VERTEX_POINT ( 'NONE', #195 ) ;
#253 = CC_DESIGN_PERSON_AND_ORGANIZATION_ASSIGNMENT ( #113, #158, ( #269 ) ) ;
#254 = DIRECTION ( 'NONE',  ( 0.000000000000000000, -1.000000000000000000, 0.000000000000000000 ) ) ;
#255 = FACE_OUTER_BOUND ( 'NONE', #23, .T. ) ;
#256 = TOROIDAL_SURFACE ( 'NONE', #83, 4.450000000000000178, 0.2000000000000000111 ) ;
#257 = CIRCLE ( 'NONE', #207, 0.1999999999999996503 ) ;
#258 = ORIENTED_EDGE ( 'NONE', *, *, #98, .T. ) ;
#259 = DIRECTION ( 'NONE',  ( 1.224646799147353207E-16, 1.000000000000000000, -0.000000000000000000 ) ) ;
#260 = CARTESIAN_POINT ( 'NONE',  ( -7.000000000000000000, 0.000000000000000000, 0.000000000000000000 ) ) ;
#261 = CARTESIAN_POINT ( 'NONE',  ( 0.000000000000000000, 0.000000000000000000, 5.200000000000009948 ) ) ;
#262 = CARTESIAN_POINT ( 'NONE',  ( 4.250000000000000000, 5.204748896376250699E-16, 5.200000000000009948 ) ) ;
#263 = DIRECTION ( 'NONE',  ( 1.000000000000000000, 0.000000000000000000, 0.000000000000000000 ) ) ;
#264 = COORDINATED_UNIVERSAL_TIME_OFFSET ( 1, 0, .AHEAD. ) ;
#265 = ADVANCED_FACE ( 'NONE', ( #287 ), #256, .F. ) ;
#266 = MECHANICAL_CONTEXT ( 'NONE', #222, 'mechanical' ) ;
#267 = ORIENTED_EDGE ( 'NONE', *, *, #191, .T. ) ;
#268 = APPROVAL ( #129, 'NEURÈENÝ' ) ;
#269 = PRODUCT_DEFINITION_FORMATION_WITH_SPECIFIED_SOURCE ( 'LIBOVOLNÝ', '', #10, .NOT_KNOWN. ) ;
#270 = PERSON_AND_ORGANIZATION ( #92, #276 ) ;
#271 = AXIS2_PLACEMENT_3D ( 'NONE', #152, #123, #239 ) ;
#272 = APPLICATION_CONTEXT ( 'configuration controlled 3d designs of mechanical parts and assemblies' ) ;
#273 = ORIENTED_EDGE ( 'NONE', *, *, #174, .T. ) ;
#274 = SECURITY_CLASSIFICATION_LEVEL ( 'unclassified' ) ;
#275 = ORIENTED_EDGE ( 'NONE', *, *, #104, .T. ) ;
#276 = ORGANIZATION ( 'NEURÈENÝ', 'NEURÈENÝ', '' ) ;
#277 = FACE_OUTER_BOUND ( 'NONE', #49, .T. ) ;
#278 = ORIENTED_EDGE ( 'NONE', *, *, #191, .F. ) ;
#279 = DIRECTION ( 'NONE',  ( -0.000000000000000000, -0.000000000000000000, -1.000000000000000000 ) ) ;
#280 = CARTESIAN_POINT ( 'NONE',  ( 0.000000000000000000, 0.000000000000000000, 5.200000000000009948 ) ) ;
#281 = DIRECTION ( 'NONE',  ( 1.000000000000000000, 0.000000000000000000, -0.000000000000000000 ) ) ;
#282 = CARTESIAN_POINT ( 'NONE',  ( -7.000000000000000000, 0.000000000000000000, 5.000000000000000000 ) ) ;
#283 = ADVANCED_FACE ( 'NONE', ( #190 ), #236, .T. ) ;
#284 = CARTESIAN_POINT ( 'NONE',  ( -4.450000000000000178, 5.449678256205721784E-16, 5.200000000000009948 ) ) ;
#285 = AXIS2_PLACEMENT_3D ( 'NONE', #73, #26, #28 ) ;
#286 = LINE ( 'NONE', #7, #291 ) ;
#287 = FACE_OUTER_BOUND ( 'NONE', #160, .T. ) ;
#288 = AXIS2_PLACEMENT_3D ( 'NONE', #126, #215, #102 ) ;
#289 = CARTESIAN_POINT ( 'NONE',  ( 0.000000000000000000, 0.000000000000000000, 5.000000000000000000 ) ) ;
#290 = EDGE_CURVE ( 'NONE', #115, #305, #211, .T. ) ;
#291 = VECTOR ( 'NONE', #82, 1000.000000000000000 ) ;
#292 =( NAMED_UNIT ( * ) SI_UNIT ( $, .STERADIAN. ) SOLID_ANGLE_UNIT ( ) );
#293 = EDGE_LOOP ( 'NONE', ( #53, #135 ) ) ;
#294 = AXIS2_PLACEMENT_3D ( 'NONE', #77, #127, #217 ) ;
#295 = CALENDAR_DATE ( 2022, 7, 7 ) ;
#296 = UNCERTAINTY_MEASURE_WITH_UNIT (LENGTH_MEASURE( 1.000000000000000082E-05 ), #107, 'distance_accuracy_value', 'NONE');
#297 = DATE_AND_TIME ( #242, #165 ) ;
#298 = ORIENTED_EDGE ( 'NONE', *, *, #98, .F. ) ;
#299 = AXIS2_PLACEMENT_3D ( 'NONE', #209, #304, #93 ) ;
#300 = LOCAL_TIME ( 14, 31, 13.00000000000000000, #175 ) ;
#301 = VERTEX_POINT ( 'NONE', #262 ) ;
#302 = ORIENTED_EDGE ( 'NONE', *, *, #290, .F. ) ;
#303 = AXIS2_PLACEMENT_3D ( 'NONE', #167, #25, #89 ) ;
#304 = DIRECTION ( 'NONE',  ( 0.000000000000000000, 0.000000000000000000, 1.000000000000000000 ) ) ;
#305 = VERTEX_POINT ( 'NONE', #153 ) ;
#306 = DIRECTION ( 'NONE',  ( -0.000000000000000000, -0.000000000000000000, -1.000000000000000000 ) ) ;
#307 = AXIS2_PLACEMENT_3D ( 'NONE', #125, #59, #149 ) ;
ENDSEC;
END-ISO-10303-21;
