ISO-10303-21;
HEADER;
FILE_DESCRIPTION (( 'STEP AP203' ),
    '1' );
FILE_NAME ('be33.STEP',
    '2022-07-07T12:17:46',
    ( '' ),
    ( '' ),
    'SwSTEP 2.0',
    'SolidWorks 2019',
    '' );
FILE_SCHEMA (( 'CONFIG_CONTROL_DESIGN' ));
ENDSEC;

DATA;
#1 = AXIS2_PLACEMENT_3D ( 'NONE', #201, #96, #5 ) ;
#2 = DIRECTION ( 'NONE',  ( -1.000000000000000000, 0.000000000000000000, 0.000000000000000000 ) ) ;
#3 = PRODUCT_DEFINITION_SHAPE ( 'NONE', 'NONE',  #233 ) ;
#4 = LINE ( 'NONE', #71, #93 ) ;
#5 = DIRECTION ( 'NONE',  ( 1.000000000000000000, 0.000000000000000000, 0.000000000000000000 ) ) ;
#6 = PRODUCT_RELATED_PRODUCT_CATEGORY ( 'detail', '', ( #195 ) ) ;
#7 = CARTESIAN_POINT ( 'NONE',  ( 13.00000000000000178, 1.592040838891559293E-15, 8.000000000000000000 ) ) ;
#8 = CIRCLE ( 'NONE', #67, 0.2000000000000005107 ) ;
#9 = CARTESIAN_POINT ( 'NONE',  ( -10.20000000000000107, 1.249139735130300365E-15, 7.999999999999992895 ) ) ;
#10 = COORDINATED_UNIVERSAL_TIME_OFFSET ( 1, 0, .AHEAD. ) ;
#11 = EDGE_LOOP ( 'NONE', ( #36, #112, #270, #137 ) ) ;
#12 = DIRECTION ( 'NONE',  ( 0.000000000000000000, 0.000000000000000000, 1.000000000000000000 ) ) ;
#13 = VERTEX_POINT ( 'NONE', #9 ) ;
#14 = DIRECTION ( 'NONE',  ( 1.000000000000000000, 0.000000000000000000, 0.000000000000000000 ) ) ;
#15 = ORIENTED_EDGE ( 'NONE', *, *, #84, .F. ) ;
#16 = PRODUCT_DEFINITION_FORMATION_WITH_SPECIFIED_SOURCE ( 'LIBOVOLNÝ', '', #195, .NOT_KNOWN. ) ;
#17 = PERSON ( 'NEURÈENÝ', 'NEURÈENÝ', 'NEURÈENÝ', ('NEURÈENÝ'), ('NEURÈENÝ'), ('NEURÈENÝ') ) ;
#18 = CLOSED_SHELL ( 'NONE', ( #149, #166, #187, #278, #115, #29, #280, #257, #259 ) ) ;
#19 = DATE_AND_TIME ( #48, #88 ) ;
#20 = EDGE_CURVE ( 'NONE', #250, #301, #138, .T. ) ;
#21 = COORDINATED_UNIVERSAL_TIME_OFFSET ( 1, 0, .AHEAD. ) ;
#22 = CARTESIAN_POINT ( 'NONE',  ( 10.00000000000000000, 1.224646799147353256E-15, 8.199999999999985079 ) ) ;
#23 = DIRECTION ( 'NONE',  ( 0.000000000000000000, -1.000000000000000000, 0.000000000000000000 ) ) ;
#24 = DIRECTION ( 'NONE',  ( -0.000000000000000000, -0.000000000000000000, -1.000000000000000000 ) ) ;
#25 = CIRCLE ( 'NONE', #217, 0.2000000000000005107 ) ;
#26 = CALENDAR_DATE ( 2022, 7, 7 ) ;
#27 = DIRECTION ( 'NONE',  ( -0.000000000000000000, -0.000000000000000000, -1.000000000000000000 ) ) ;
#28 = PERSON_AND_ORGANIZATION ( #17, #279 ) ;
#29 = ADVANCED_FACE ( 'NONE', ( #208 ), #182, .F. ) ;
#30 = CYLINDRICAL_SURFACE ( 'NONE', #169, 10.00000000000000000 ) ;
#31 = DIRECTION ( 'NONE',  ( 0.000000000000000000, 0.000000000000000000, 1.000000000000000000 ) ) ;
#32 = APPROVAL_STATUS ( 'not_yet_approved' ) ;
#33 = DIRECTION ( 'NONE',  ( -0.000000000000000000, -0.000000000000000000, -1.000000000000000000 ) ) ;
#34 =( NAMED_UNIT ( * ) SI_UNIT ( $, .STERADIAN. ) SOLID_ANGLE_UNIT ( ) );
#35 = VECTOR ( 'NONE', #269, 1000.000000000000000 ) ;
#36 = ORIENTED_EDGE ( 'NONE', *, *, #89, .F. ) ;
#37 = CARTESIAN_POINT ( 'NONE',  ( 0.000000000000000000, 0.000000000000000000, 8.000000000000000000 ) ) ;
#38 = FACE_OUTER_BOUND ( 'NONE', #156, .T. ) ;
#39 = EDGE_CURVE ( 'NONE', #185, #226, #222, .T. ) ;
#40 = VERTEX_POINT ( 'NONE', #273 ) ;
#41 = ORIENTED_EDGE ( 'NONE', *, *, #168, .T. ) ;
#42 = ORIENTED_EDGE ( 'NONE', *, *, #206, .T. ) ;
#43 = CIRCLE ( 'NONE', #70, 10.00000000000000000 ) ;
#44 = CC_DESIGN_PERSON_AND_ORGANIZATION_ASSIGNMENT ( #247, #197, ( #195 ) ) ;
#45 = LOCAL_TIME ( 14, 17, 46.00000000000000000, #10 ) ;
#46 = CC_DESIGN_DATE_AND_TIME_ASSIGNMENT ( #19, #140, ( #231 ) ) ;
#47 = PERSON_AND_ORGANIZATION ( #17, #279 ) ;
#48 = CALENDAR_DATE ( 2022, 7, 7 ) ;
#49 = CIRCLE ( 'NONE', #192, 10.00000000000000000 ) ;
#50 = EDGE_CURVE ( 'NONE', #295, #210, #109, .T. ) ;
#51 = CARTESIAN_POINT ( 'NONE',  ( 0.000000000000000000, 0.000000000000000000, 8.000000000000000000 ) ) ;
#52 = DIRECTION ( 'NONE',  ( 0.000000000000000000, 0.000000000000000000, 1.000000000000000000 ) ) ;
#53 = COORDINATED_UNIVERSAL_TIME_OFFSET ( 1, 0, .AHEAD. ) ;
#54 = CARTESIAN_POINT ( 'NONE',  ( 0.000000000000000000, 0.000000000000000000, 408.0000000000000568 ) ) ;
#55 = LOCAL_TIME ( 14, 17, 46.00000000000000000, #286 ) ;
#56 = APPROVAL_DATE_TIME ( #155, #66 ) ;
#57 = DIRECTION ( 'NONE',  ( 1.000000000000000000, 0.000000000000000000, 0.000000000000000000 ) ) ;
#58 =( LENGTH_UNIT ( ) NAMED_UNIT ( * ) SI_UNIT ( .MILLI., .METRE. ) );
#59 = ORIENTED_EDGE ( 'NONE', *, *, #87, .T. ) ;
#60 = ORIENTED_EDGE ( 'NONE', *, *, #87, .F. ) ;
#61 = FACE_BOUND ( 'NONE', #252, .T. ) ;
#62 = CIRCLE ( 'NONE', #68, 10.00000000000000000 ) ;
#63 = CARTESIAN_POINT ( 'NONE',  ( 0.000000000000000000, 0.000000000000000000, 408.0000000000000568 ) ) ;
#64 = CARTESIAN_POINT ( 'NONE',  ( 0.000000000000000000, 0.000000000000000000, 0.000000000000000000 ) ) ;
#65 = ORIENTED_EDGE ( 'NONE', *, *, #141, .T. ) ;
#66 = APPROVAL ( #32, 'NEURÈENÝ' ) ;
#67 = AXIS2_PLACEMENT_3D ( 'NONE', #196, #23, #285 ) ;
#68 = AXIS2_PLACEMENT_3D ( 'NONE', #214, #216, #117 ) ;
#69 = DIRECTION ( 'NONE',  ( -0.000000000000000000, -0.000000000000000000, -1.000000000000000000 ) ) ;
#70 = AXIS2_PLACEMENT_3D ( 'NONE', #54, #193, #118 ) ;
#71 = CARTESIAN_POINT ( 'NONE',  ( -13.00000000000000178, 0.000000000000000000, 8.000000000000000000 ) ) ;
#72 = CALENDAR_DATE ( 2022, 7, 7 ) ;
#73 = CARTESIAN_POINT ( 'NONE',  ( 13.00000000000000178, 1.592040838891559293E-15, 0.000000000000000000 ) ) ;
#74 = PERSON_AND_ORGANIZATION ( #17, #279 ) ;
#75 = DIRECTION ( 'NONE',  ( -0.000000000000000000, -0.000000000000000000, -1.000000000000000000 ) ) ;
#76 = CIRCLE ( 'NONE', #143, 13.00000000000000178 ) ;
#77 = DIRECTION ( 'NONE',  ( 1.000000000000000000, 0.000000000000000000, 0.000000000000000000 ) ) ;
#78 = ORIENTED_EDGE ( 'NONE', *, *, #39, .F. ) ;
#79 = CARTESIAN_POINT ( 'NONE',  ( 0.000000000000000000, 0.000000000000000000, 8.000000000000000000 ) ) ;
#80 = EDGE_LOOP ( 'NONE', ( #41, #255 ) ) ;
#81 = ORIENTED_EDGE ( 'NONE', *, *, #198, .F. ) ;
#82 = AXIS2_PLACEMENT_3D ( 'NONE', #205, #271, #246 ) ;
#83 = ORIENTED_EDGE ( 'NONE', *, *, #20, .F. ) ;
#84 = EDGE_CURVE ( 'NONE', #159, #297, #49, .T. ) ;
#85 = ORIENTED_EDGE ( 'NONE', *, *, #284, .F. ) ;
#86 = AXIS2_PLACEMENT_3D ( 'NONE', #79, #103, #200 ) ;
#87 = EDGE_CURVE ( 'NONE', #159, #13, #25, .T. ) ;
#88 = LOCAL_TIME ( 14, 17, 46.00000000000000000, #145 ) ;
#89 = EDGE_CURVE ( 'NONE', #185, #301, #221, .T. ) ;
#90 = PERSON_AND_ORGANIZATION_ROLE ( 'classification_officer' ) ;
#91 = FACE_OUTER_BOUND ( 'NONE', #80, .T. ) ;
#92 = CARTESIAN_POINT ( 'NONE',  ( -10.00000000000000000, 0.000000000000000000, 408.0000000000000568 ) ) ;
#93 = VECTOR ( 'NONE', #69, 1000.000000000000000 ) ;
#94 = ADVANCED_BREP_SHAPE_REPRESENTATION ( 'be33', ( #305, #1 ), #139 ) ;
#95 = CARTESIAN_POINT ( 'NONE',  ( 0.000000000000000000, 0.000000000000000000, 408.0000000000000568 ) ) ;
#96 = DIRECTION ( 'NONE',  ( 0.000000000000000000, 0.000000000000000000, 1.000000000000000000 ) ) ;
#97 = DIRECTION ( 'NONE',  ( -0.000000000000000000, -0.000000000000000000, -1.000000000000000000 ) ) ;
#98 =( NAMED_UNIT ( * ) PLANE_ANGLE_UNIT ( ) SI_UNIT ( $, .RADIAN. ) );
#99 = AXIS2_PLACEMENT_3D ( 'NONE', #37, #203, #131 ) ;
#100 = ORIENTED_EDGE ( 'NONE', *, *, #104, .F. ) ;
#101 = PERSON_AND_ORGANIZATION ( #17, #279 ) ;
#102 = ORIENTED_EDGE ( 'NONE', *, *, #104, .T. ) ;
#103 = DIRECTION ( 'NONE',  ( 0.000000000000000000, 0.000000000000000000, 1.000000000000000000 ) ) ;
#104 = EDGE_CURVE ( 'NONE', #295, #297, #132, .T. ) ;
#105 = EDGE_LOOP ( 'NONE', ( #83, #202 ) ) ;
#106 = CARTESIAN_POINT ( 'NONE',  ( -10.20000000000000107, 1.249139735130300365E-15, 8.199999999999985079 ) ) ;
#107 = ORIENTED_EDGE ( 'NONE', *, *, #177, .T. ) ;
#108 = DIRECTION ( 'NONE',  ( 0.000000000000000000, 0.000000000000000000, 1.000000000000000000 ) ) ;
#109 = CIRCLE ( 'NONE', #282, 10.00000000000000000 ) ;
#110 = EDGE_LOOP ( 'NONE', ( #60, #209, #294, #293 ) ) ;
#111 = EDGE_CURVE ( 'NONE', #13, #40, #207, .T. ) ;
#112 = ORIENTED_EDGE ( 'NONE', *, *, #177, .F. ) ;
#113 = AXIS2_PLACEMENT_3D ( 'NONE', #51, #24, #243 ) ;
#114 = CIRCLE ( 'NONE', #272, 13.00000000000000178 ) ;
#115 = ADVANCED_FACE ( 'NONE', ( #61, #296 ), #248, .T. ) ;
#116 = FACE_OUTER_BOUND ( 'NONE', #110, .T. ) ;
#117 = DIRECTION ( 'NONE',  ( 1.000000000000000000, 0.000000000000000000, 0.000000000000000000 ) ) ;
#118 = DIRECTION ( 'NONE',  ( 1.000000000000000000, 0.000000000000000000, 0.000000000000000000 ) ) ;
#119 = LOCAL_TIME ( 14, 17, 46.00000000000000000, #53 ) ;
#120 = APPROVAL_DATE_TIME ( #242, #211 ) ;
#121 = DIRECTION ( 'NONE',  ( 1.000000000000000000, 0.000000000000000000, 0.000000000000000000 ) ) ;
#122 = PERSON_AND_ORGANIZATION_ROLE ( 'creator' ) ;
#123 = DIRECTION ( 'NONE',  ( -0.000000000000000000, -0.000000000000000000, -1.000000000000000000 ) ) ;
#124 = CARTESIAN_POINT ( 'NONE',  ( 0.000000000000000000, 0.000000000000000000, 8.199999999999985079 ) ) ;
#125 = PERSON_AND_ORGANIZATION ( #17, #279 ) ;
#126 = CC_DESIGN_PERSON_AND_ORGANIZATION_ASSIGNMENT ( #74, #122, ( #16 ) ) ;
#127 = AXIS2_PLACEMENT_3D ( 'NONE', #287, #75, #306 ) ;
#128 = CARTESIAN_POINT ( 'NONE',  ( 0.000000000000000000, 0.000000000000000000, 0.000000000000000000 ) ) ;
#129 = APPLICATION_PROTOCOL_DEFINITION ( 'international standard', 'config_control_design', 1994, #190 ) ;
#130 = ORIENTED_EDGE ( 'NONE', *, *, #206, .F. ) ;
#131 = DIRECTION ( 'NONE',  ( 1.000000000000000000, 0.000000000000000000, -0.000000000000000000 ) ) ;
#132 = LINE ( 'NONE', #160, #35 ) ;
#133 = APPROVAL ( #188, 'NEURÈENÝ' ) ;
#134 = ORIENTED_EDGE ( 'NONE', *, *, #50, .F. ) ;
#135 = DIRECTION ( 'NONE',  ( 0.000000000000000000, 0.000000000000000000, 1.000000000000000000 ) ) ;
#136 = APPROVAL_PERSON_ORGANIZATION ( #194, #133, #167 ) ;
#137 = ORIENTED_EDGE ( 'NONE', *, *, #20, .T. ) ;
#138 = CIRCLE ( 'NONE', #151, 13.00000000000000178 ) ;
#139 =( GEOMETRIC_REPRESENTATION_CONTEXT ( 3 ) GLOBAL_UNCERTAINTY_ASSIGNED_CONTEXT ( ( #228 ) ) GLOBAL_UNIT_ASSIGNED_CONTEXT ( ( #58, #98, #34 ) ) REPRESENTATION_CONTEXT ( 'NONE', 'WORKASPACE' ) );
#140 = DATE_TIME_ROLE ( 'classification_date' ) ;
#141 = EDGE_CURVE ( 'NONE', #301, #250, #76, .T. ) ;
#142 = SHAPE_DEFINITION_REPRESENTATION ( #3, #94 ) ;
#143 = AXIS2_PLACEMENT_3D ( 'NONE', #128, #12, #300 ) ;
#144 = DIRECTION ( 'NONE',  ( -1.000000000000000000, 0.000000000000000000, 0.000000000000000000 ) ) ;
#145 = COORDINATED_UNIVERSAL_TIME_OFFSET ( 1, 0, .AHEAD. ) ;
#146 = CYLINDRICAL_SURFACE ( 'NONE', #176, 13.00000000000000178 ) ;
#147 = APPROVAL_DATE_TIME ( #215, #133 ) ;
#148 = FACE_OUTER_BOUND ( 'NONE', #183, .T. ) ;
#149 = ADVANCED_FACE ( 'NONE', ( #254 ), #262, .F. ) ;
#150 = LINE ( 'NONE', #92, #302 ) ;
#151 = AXIS2_PLACEMENT_3D ( 'NONE', #64, #108, #77 ) ;
#152 = CARTESIAN_POINT ( 'NONE',  ( 0.000000000000000000, 0.000000000000000000, 408.0000000000000568 ) ) ;
#153 = DIRECTION ( 'NONE',  ( -1.000000000000000000, 1.224646799147353207E-16, 0.000000000000000000 ) ) ;
#154 = CARTESIAN_POINT ( 'NONE',  ( 0.000000000000000000, 0.000000000000000000, 0.000000000000000000 ) ) ;
#155 = DATE_AND_TIME ( #173, #55 ) ;
#156 = EDGE_LOOP ( 'NONE', ( #134, #102, #204, #81 ) ) ;
#157 = VECTOR ( 'NONE', #33, 1000.000000000000000 ) ;
#158 = DIRECTION ( 'NONE',  ( 0.000000000000000000, 0.000000000000000000, 1.000000000000000000 ) ) ;
#159 = VERTEX_POINT ( 'NONE', #274 ) ;
#160 = CARTESIAN_POINT ( 'NONE',  ( 10.00000000000000000, 1.224646799147353256E-15, 408.0000000000000568 ) ) ;
#161 = EDGE_LOOP ( 'NONE', ( #15, #59, #130, #85 ) ) ;
#162 = DIRECTION ( 'NONE',  ( 1.000000000000000000, 0.000000000000000000, -0.000000000000000000 ) ) ;
#163 = EDGE_LOOP ( 'NONE', ( #78, #225, #65, #290 ) ) ;
#164 = APPLICATION_CONTEXT ( 'configuration controlled 3d designs of mechanical parts and assemblies' ) ;
#165 = AXIS2_PLACEMENT_3D ( 'NONE', #268, #97, #121 ) ;
#166 = ADVANCED_FACE ( 'NONE', ( #38 ), #184, .T. ) ;
#167 = APPROVAL_ROLE ( '' ) ;
#168 = EDGE_CURVE ( 'NONE', #210, #295, #43, .T. ) ;
#169 = AXIS2_PLACEMENT_3D ( 'NONE', #95, #123, #144 ) ;
#170 = PLANE ( 'NONE',  #267 ) ;
#171 = PERSON_AND_ORGANIZATION ( #17, #279 ) ;
#172 = DIRECTION ( 'NONE',  ( 1.000000000000000000, 0.000000000000000000, -0.000000000000000000 ) ) ;
#173 = CALENDAR_DATE ( 2022, 7, 7 ) ;
#174 = FACE_OUTER_BOUND ( 'NONE', #11, .T. ) ;
#175 = FACE_OUTER_BOUND ( 'NONE', #163, .T. ) ;
#176 = AXIS2_PLACEMENT_3D ( 'NONE', #218, #245, #2 ) ;
#177 = EDGE_CURVE ( 'NONE', #226, #185, #114, .T. ) ;
#178 = DATE_TIME_ROLE ( 'creation_date' ) ;
#179 = DIRECTION ( 'NONE',  ( 1.000000000000000000, 0.000000000000000000, 0.000000000000000000 ) ) ;
#180 = DIRECTION ( 'NONE',  ( 1.224646799147353207E-16, 1.000000000000000000, -0.000000000000000000 ) ) ;
#181 = APPROVAL_PERSON_ORGANIZATION ( #125, #66, #224 ) ;
#182 = PLANE ( 'NONE',  #186 ) ;
#183 = EDGE_LOOP ( 'NONE', ( #100, #275, #258, #232 ) ) ;
#184 = CYLINDRICAL_SURFACE ( 'NONE', #127, 10.00000000000000000 ) ;
#185 = VERTEX_POINT ( 'NONE', #307 ) ;
#186 = AXIS2_PLACEMENT_3D ( 'NONE', #154, #223, #162 ) ;
#187 = ADVANCED_FACE ( 'NONE', ( #175 ), #281, .T. ) ;
#188 = APPROVAL_STATUS ( 'not_yet_approved' ) ;
#189 = APPROVAL_PERSON_ORGANIZATION ( #101, #211, #265 ) ;
#190 = APPLICATION_CONTEXT ( 'configuration controlled 3d designs of mechanical parts and assemblies' ) ;
#191 = DIRECTION ( 'NONE',  ( 0.000000000000000000, 0.000000000000000000, 1.000000000000000000 ) ) ;
#192 = AXIS2_PLACEMENT_3D ( 'NONE', #124, #135, #179 ) ;
#193 = DIRECTION ( 'NONE',  ( 0.000000000000000000, 0.000000000000000000, 1.000000000000000000 ) ) ;
#194 = PERSON_AND_ORGANIZATION ( #17, #279 ) ;
#195 = PRODUCT ( 'be33', 'be33', '', ( #249 ) ) ;
#196 = CARTESIAN_POINT ( 'NONE',  ( 10.20000000000000107, 0.000000000000000000, 8.199999999999985079 ) ) ;
#197 = PERSON_AND_ORGANIZATION_ROLE ( 'design_owner' ) ;
#198 = EDGE_CURVE ( 'NONE', #210, #159, #150, .T. ) ;
#199 = AXIS2_PLACEMENT_3D ( 'NONE', #264, #52, #263 ) ;
#200 = DIRECTION ( 'NONE',  ( 1.000000000000000000, 0.000000000000000000, 0.000000000000000000 ) ) ;
#201 = CARTESIAN_POINT ( 'NONE',  ( 0.000000000000000000, 0.000000000000000000, 0.000000000000000000 ) ) ;
#202 = ORIENTED_EDGE ( 'NONE', *, *, #141, .F. ) ;
#203 = DIRECTION ( 'NONE',  ( 0.000000000000000000, 0.000000000000000000, 1.000000000000000000 ) ) ;
#204 = ORIENTED_EDGE ( 'NONE', *, *, #299, .T. ) ;
#205 = CARTESIAN_POINT ( 'NONE',  ( 0.000000000000000000, 0.000000000000000000, 8.000000000000000000 ) ) ;
#206 = EDGE_CURVE ( 'NONE', #40, #13, #277, .T. ) ;
#207 = CIRCLE ( 'NONE', #82, 10.20000000000000107 ) ;
#208 = FACE_OUTER_BOUND ( 'NONE', #105, .T. ) ;
#209 = ORIENTED_EDGE ( 'NONE', *, *, #299, .F. ) ;
#210 = VERTEX_POINT ( 'NONE', #219 ) ;
#211 = APPROVAL ( #292, 'NEURÈENÝ' ) ;
#212 = TOROIDAL_SURFACE ( 'NONE', #199, 10.20000000000000107, 0.2000000000000000111 ) ;
#213 = CC_DESIGN_APPROVAL ( #133, ( #231 ) ) ;
#214 = CARTESIAN_POINT ( 'NONE',  ( 0.000000000000000000, 0.000000000000000000, 8.199999999999985079 ) ) ;
#215 = DATE_AND_TIME ( #261, #304 ) ;
#216 = DIRECTION ( 'NONE',  ( 0.000000000000000000, 0.000000000000000000, 1.000000000000000000 ) ) ;
#217 = AXIS2_PLACEMENT_3D ( 'NONE', #106, #180, #153 ) ;
#218 = CARTESIAN_POINT ( 'NONE',  ( 0.000000000000000000, 0.000000000000000000, 8.000000000000000000 ) ) ;
#219 = CARTESIAN_POINT ( 'NONE',  ( -10.00000000000000000, 0.000000000000000000, 408.0000000000000568 ) ) ;
#220 = APPLICATION_PROTOCOL_DEFINITION ( 'international standard', 'config_control_design', 1994, #164 ) ;
#221 = LINE ( 'NONE', #7, #157 ) ;
#222 = CIRCLE ( 'NONE', #86, 13.00000000000000178 ) ;
#223 = DIRECTION ( 'NONE',  ( 0.000000000000000000, 0.000000000000000000, 1.000000000000000000 ) ) ;
#224 = APPROVAL_ROLE ( '' ) ;
#225 = ORIENTED_EDGE ( 'NONE', *, *, #89, .T. ) ;
#226 = VERTEX_POINT ( 'NONE', #266 ) ;
#227 = ORIENTED_EDGE ( 'NONE', *, *, #111, .T. ) ;
#228 = UNCERTAINTY_MEASURE_WITH_UNIT (LENGTH_MEASURE( 1.000000000000000082E-05 ), #58, 'distance_accuracy_value', 'NONE');
#229 = CARTESIAN_POINT ( 'NONE',  ( 0.000000000000000000, 0.000000000000000000, 8.199999999999985079 ) ) ;
#230 = ORIENTED_EDGE ( 'NONE', *, *, #39, .T. ) ;
#231 = SECURITY_CLASSIFICATION ( '', '', #236 ) ;
#232 = ORIENTED_EDGE ( 'NONE', *, *, #84, .T. ) ;
#233 = PRODUCT_DEFINITION ( 'NEZNÁMÝ', '', #16, #276 ) ;
#234 = CC_DESIGN_APPROVAL ( #66, ( #233 ) ) ;
#235 = CC_DESIGN_PERSON_AND_ORGANIZATION_ASSIGNMENT ( #171, #239, ( #16 ) ) ;
#236 = SECURITY_CLASSIFICATION_LEVEL ( 'unclassified' ) ;
#237 = CARTESIAN_POINT ( 'NONE',  ( 10.00000000000000000, 1.224646799147353256E-15, 408.0000000000000568 ) ) ;
#238 = DIRECTION ( 'NONE',  ( 0.000000000000000000, 0.000000000000000000, 1.000000000000000000 ) ) ;
#239 = PERSON_AND_ORGANIZATION_ROLE ( 'design_supplier' ) ;
#240 = CARTESIAN_POINT ( 'NONE',  ( 0.000000000000000000, 0.000000000000000000, 8.000000000000000000 ) ) ;
#241 = CC_DESIGN_PERSON_AND_ORGANIZATION_ASSIGNMENT ( #28, #244, ( #233 ) ) ;
#242 = DATE_AND_TIME ( #26, #119 ) ;
#243 = DIRECTION ( 'NONE',  ( -1.000000000000000000, 0.000000000000000000, 0.000000000000000000 ) ) ;
#244 = PERSON_AND_ORGANIZATION_ROLE ( 'creator' ) ;
#245 = DIRECTION ( 'NONE',  ( -0.000000000000000000, -0.000000000000000000, -1.000000000000000000 ) ) ;
#246 = DIRECTION ( 'NONE',  ( 1.000000000000000000, 0.000000000000000000, 0.000000000000000000 ) ) ;
#247 = PERSON_AND_ORGANIZATION ( #17, #279 ) ;
#248 = PLANE ( 'NONE',  #99 ) ;
#249 = MECHANICAL_CONTEXT ( 'NONE', #190, 'mechanical' ) ;
#250 = VERTEX_POINT ( 'NONE', #283 ) ;
#251 = EDGE_CURVE ( 'NONE', #226, #250, #4, .T. ) ;
#252 = EDGE_LOOP ( 'NONE', ( #42, #227 ) ) ;
#253 = EDGE_LOOP ( 'NONE', ( #107, #230 ) ) ;
#254 = FACE_OUTER_BOUND ( 'NONE', #161, .T. ) ;
#255 = ORIENTED_EDGE ( 'NONE', *, *, #50, .T. ) ;
#256 = DIRECTION ( 'NONE',  ( 1.000000000000000000, 0.000000000000000000, 0.000000000000000000 ) ) ;
#257 = ADVANCED_FACE ( 'NONE', ( #91 ), #170, .T. ) ;
#258 = ORIENTED_EDGE ( 'NONE', *, *, #198, .T. ) ;
#259 = ADVANCED_FACE ( 'NONE', ( #116 ), #212, .F. ) ;
#260 = AXIS2_PLACEMENT_3D ( 'NONE', #229, #31, #14 ) ;
#261 = CALENDAR_DATE ( 2022, 7, 7 ) ;
#262 = TOROIDAL_SURFACE ( 'NONE', #260, 10.20000000000000107, 0.2000000000000000111 ) ;
#263 = DIRECTION ( 'NONE',  ( 1.000000000000000000, 0.000000000000000000, 0.000000000000000000 ) ) ;
#264 = CARTESIAN_POINT ( 'NONE',  ( 0.000000000000000000, 0.000000000000000000, 8.199999999999985079 ) ) ;
#265 = APPROVAL_ROLE ( '' ) ;
#266 = CARTESIAN_POINT ( 'NONE',  ( -13.00000000000000178, 0.000000000000000000, 8.000000000000000000 ) ) ;
#267 = AXIS2_PLACEMENT_3D ( 'NONE', #152, #238, #172 ) ;
#268 = CARTESIAN_POINT ( 'NONE',  ( 0.000000000000000000, 0.000000000000000000, 8.000000000000000000 ) ) ;
#269 = DIRECTION ( 'NONE',  ( -0.000000000000000000, -0.000000000000000000, -1.000000000000000000 ) ) ;
#270 = ORIENTED_EDGE ( 'NONE', *, *, #251, .T. ) ;
#271 = DIRECTION ( 'NONE',  ( -0.000000000000000000, -0.000000000000000000, -1.000000000000000000 ) ) ;
#272 = AXIS2_PLACEMENT_3D ( 'NONE', #240, #191, #57 ) ;
#273 = CARTESIAN_POINT ( 'NONE',  ( 10.20000000000000107, 0.000000000000000000, 7.999999999999992895 ) ) ;
#274 = CARTESIAN_POINT ( 'NONE',  ( -10.00000000000000000, 0.000000000000000000, 8.199999999999985079 ) ) ;
#275 = ORIENTED_EDGE ( 'NONE', *, *, #168, .F. ) ;
#276 = DESIGN_CONTEXT ( 'detailed design', #164, 'design' ) ;
#277 = CIRCLE ( 'NONE', #165, 10.20000000000000107 ) ;
#278 = ADVANCED_FACE ( 'NONE', ( #174 ), #146, .T. ) ;
#279 = ORGANIZATION ( 'NEURÈENÝ', 'NEURÈENÝ', '' ) ;
#280 = ADVANCED_FACE ( 'NONE', ( #148 ), #30, .T. ) ;
#281 = CYLINDRICAL_SURFACE ( 'NONE', #113, 13.00000000000000178 ) ;
#282 = AXIS2_PLACEMENT_3D ( 'NONE', #63, #158, #256 ) ;
#283 = CARTESIAN_POINT ( 'NONE',  ( -13.00000000000000178, 0.000000000000000000, 0.000000000000000000 ) ) ;
#284 = EDGE_CURVE ( 'NONE', #297, #40, #8, .T. ) ;
#285 = DIRECTION ( 'NONE',  ( 0.000000000000000000, 0.000000000000000000, -1.000000000000000000 ) ) ;
#286 = COORDINATED_UNIVERSAL_TIME_OFFSET ( 1, 0, .AHEAD. ) ;
#287 = CARTESIAN_POINT ( 'NONE',  ( 0.000000000000000000, 0.000000000000000000, 408.0000000000000568 ) ) ;
#288 = DATE_AND_TIME ( #72, #45 ) ;
#289 = CC_DESIGN_SECURITY_CLASSIFICATION ( #231, ( #16 ) ) ;
#290 = ORIENTED_EDGE ( 'NONE', *, *, #251, .F. ) ;
#291 = CC_DESIGN_PERSON_AND_ORGANIZATION_ASSIGNMENT ( #47, #90, ( #231 ) ) ;
#292 = APPROVAL_STATUS ( 'not_yet_approved' ) ;
#293 = ORIENTED_EDGE ( 'NONE', *, *, #111, .F. ) ;
#294 = ORIENTED_EDGE ( 'NONE', *, *, #284, .T. ) ;
#295 = VERTEX_POINT ( 'NONE', #237 ) ;
#296 = FACE_OUTER_BOUND ( 'NONE', #253, .T. ) ;
#297 = VERTEX_POINT ( 'NONE', #22 ) ;
#298 = CC_DESIGN_APPROVAL ( #211, ( #16 ) ) ;
#299 = EDGE_CURVE ( 'NONE', #297, #159, #62, .T. ) ;
#300 = DIRECTION ( 'NONE',  ( 1.000000000000000000, 0.000000000000000000, 0.000000000000000000 ) ) ;
#301 = VERTEX_POINT ( 'NONE', #73 ) ;
#302 = VECTOR ( 'NONE', #27, 1000.000000000000000 ) ;
#303 = CC_DESIGN_DATE_AND_TIME_ASSIGNMENT ( #288, #178, ( #233 ) ) ;
#304 = LOCAL_TIME ( 14, 17, 46.00000000000000000, #21 ) ;
#305 = MANIFOLD_SOLID_BREP ( 'Zaoblit1', #18 ) ;
#306 = DIRECTION ( 'NONE',  ( -1.000000000000000000, 0.000000000000000000, 0.000000000000000000 ) ) ;
#307 = CARTESIAN_POINT ( 'NONE',  ( 13.00000000000000178, 1.592040838891559293E-15, 8.000000000000000000 ) ) ;
ENDSEC;
END-ISO-10303-21;
