ISO-10303-21;
HEADER;
FILE_DESCRIPTION (( 'STEP AP203' ),
    '1' );
FILE_NAME ('d08d.STEP',
    '2022-07-07T12:28:31',
    ( '' ),
    ( '' ),
    'SwSTEP 2.0',
    'SolidWorks 2019',
    '' );
FILE_SCHEMA (( 'CONFIG_CONTROL_DESIGN' ));
ENDSEC;

DATA;
#1 = DIRECTION ( 'NONE',  ( -0.000000000000000000, -0.000000000000000000, -1.000000000000000000 ) ) ;
#2 = DIRECTION ( 'NONE',  ( 0.000000000000000000, 0.000000000000000000, 1.000000000000000000 ) ) ;
#3 = DIRECTION ( 'NONE',  ( 1.000000000000000000, 0.000000000000000000, 0.000000000000000000 ) ) ;
#4 = DIRECTION ( 'NONE',  ( 0.000000000000000000, 0.000000000000000000, 1.000000000000000000 ) ) ;
#5 = AXIS2_PLACEMENT_3D ( 'NONE', #192, #284, #238 ) ;
#6 = PLANE ( 'NONE',  #5 ) ;
#7 = ORIENTED_EDGE ( 'NONE', *, *, #104, .T. ) ;
#8 = CIRCLE ( 'NONE', #85, 8.000000000000000000 ) ;
#9 = VERTEX_POINT ( 'NONE', #139 ) ;
#10 = CC_DESIGN_PERSON_AND_ORGANIZATION_ASSIGNMENT ( #13, #90, ( #172 ) ) ;
#11 = ORIENTED_EDGE ( 'NONE', *, *, #62, .T. ) ;
#12 = PERSON_AND_ORGANIZATION ( #262, #88 ) ;
#13 = PERSON_AND_ORGANIZATION ( #262, #88 ) ;
#14 = CARTESIAN_POINT ( 'NONE',  ( -5.000000000000000000, 0.000000000000000000, 130.0000000000000000 ) ) ;
#15 = APPROVAL_STATUS ( 'not_yet_approved' ) ;
#16 = EDGE_LOOP ( 'NONE', ( #174, #40 ) ) ;
#17 = ADVANCED_FACE ( 'NONE', ( #117 ), #277, .T. ) ;
#18 = CIRCLE ( 'NONE', #161, 0.1999999999999996503 ) ;
#19 = APPROVAL_STATUS ( 'not_yet_approved' ) ;
#20 = DIRECTION ( 'NONE',  ( -0.000000000000000000, -0.000000000000000000, -1.000000000000000000 ) ) ;
#21 = CC_DESIGN_APPROVAL ( #195, ( #203 ) ) ;
#22 = APPROVAL_ROLE ( '' ) ;
#23 = ORIENTED_EDGE ( 'NONE', *, *, #189, .T. ) ;
#24 = DATE_AND_TIME ( #69, #33 ) ;
#25 = EDGE_CURVE ( 'NONE', #196, #268, #215, .T. ) ;
#26 = FACE_OUTER_BOUND ( 'NONE', #102, .T. ) ;
#27 = CARTESIAN_POINT ( 'NONE',  ( -5.000000000000000000, 0.000000000000000000, 130.0000000000000000 ) ) ;
#28 = AXIS2_PLACEMENT_3D ( 'NONE', #260, #4, #3 ) ;
#29 = DIRECTION ( 'NONE',  ( -0.000000000000000000, -0.000000000000000000, -1.000000000000000000 ) ) ;
#30 = FACE_OUTER_BOUND ( 'NONE', #248, .T. ) ;
#31 = CYLINDRICAL_SURFACE ( 'NONE', #150, 8.000000000000000000 ) ;
#32 = CIRCLE ( 'NONE', #242, 5.000000000000000000 ) ;
#33 = LOCAL_TIME ( 14, 28, 31.00000000000000000, #183 ) ;
#34 = ORIENTED_EDGE ( 'NONE', *, *, #36, .T. ) ;
#35 = AXIS2_PLACEMENT_3D ( 'NONE', #180, #20, #66 ) ;
#36 = EDGE_CURVE ( 'NONE', #304, #9, #209, .T. ) ;
#37 = ORIENTED_EDGE ( 'NONE', *, *, #104, .F. ) ;
#38 = APPROVAL_DATE_TIME ( #282, #124 ) ;
#39 = CARTESIAN_POINT ( 'NONE',  ( 0.000000000000000000, 0.000000000000000000, 0.000000000000000000 ) ) ;
#40 = ORIENTED_EDGE ( 'NONE', *, *, #233, .F. ) ;
#41 = COORDINATED_UNIVERSAL_TIME_OFFSET ( 1, 0, .AHEAD. ) ;
#42 = DIRECTION ( 'NONE',  ( 1.000000000000000000, 0.000000000000000000, 0.000000000000000000 ) ) ;
#43 = CIRCLE ( 'NONE', #76, 0.1999999999999996503 ) ;
#44 = DIRECTION ( 'NONE',  ( 1.224646799147353207E-16, 1.000000000000000000, -0.000000000000000000 ) ) ;
#45 = COORDINATED_UNIVERSAL_TIME_OFFSET ( 1, 0, .AHEAD. ) ;
#46 = CARTESIAN_POINT ( 'NONE',  ( -5.200000000000000178, 6.368163355566236381E-16, 5.199999999999996625 ) ) ;
#47 = DIRECTION ( 'NONE',  ( -1.000000000000000000, 0.000000000000000000, 0.000000000000000000 ) ) ;
#48 = FACE_BOUND ( 'NONE', #266, .T. ) ;
#49 = ADVANCED_FACE ( 'NONE', ( #252 ), #307, .T. ) ;
#50 = CC_DESIGN_APPROVAL ( #124, ( #172 ) ) ;
#51 = CARTESIAN_POINT ( 'NONE',  ( -8.000000000000000000, 0.000000000000000000, 0.000000000000000000 ) ) ;
#52 = EDGE_CURVE ( 'NONE', #196, #55, #64, .T. ) ;
#53 = CARTESIAN_POINT ( 'NONE',  ( 5.200000000000000178, 0.000000000000000000, 4.999999999999998224 ) ) ;
#54 = CARTESIAN_POINT ( 'NONE',  ( 5.200000000000000178, 0.000000000000000000, 5.199999999999996625 ) ) ;
#55 = VERTEX_POINT ( 'NONE', #301 ) ;
#56 = UNCERTAINTY_MEASURE_WITH_UNIT (LENGTH_MEASURE( 1.000000000000000082E-05 ), #82, 'distance_accuracy_value', 'NONE');
#57 = CC_DESIGN_PERSON_AND_ORGANIZATION_ASSIGNMENT ( #201, #305, ( #107 ) ) ;
#58 = ORIENTED_EDGE ( 'NONE', *, *, #155, .F. ) ;
#59 = AXIS2_PLACEMENT_3D ( 'NONE', #159, #226, #115 ) ;
#60 = TOROIDAL_SURFACE ( 'NONE', #175, 5.200000000000000178, 0.2000000000000000111 ) ;
#61 = ORIENTED_EDGE ( 'NONE', *, *, #103, .T. ) ;
#62 = EDGE_CURVE ( 'NONE', #9, #182, #32, .T. ) ;
#63 = DATE_AND_TIME ( #297, #288 ) ;
#64 = LINE ( 'NONE', #67, #113 ) ;
#65 = AXIS2_PLACEMENT_3D ( 'NONE', #299, #157, #131 ) ;
#66 = DIRECTION ( 'NONE',  ( -1.000000000000000000, 0.000000000000000000, 0.000000000000000000 ) ) ;
#67 = CARTESIAN_POINT ( 'NONE',  ( 8.000000000000000000, 9.797174393178825657E-16, 5.000000000000000000 ) ) ;
#68 = ADVANCED_BREP_SHAPE_REPRESENTATION ( 'd08d', ( #287, #167 ), #181 ) ;
#69 = CALENDAR_DATE ( 2022, 7, 7 ) ;
#70 = CC_DESIGN_PERSON_AND_ORGANIZATION_ASSIGNMENT ( #303, #247, ( #203 ) ) ;
#71 = DIRECTION ( 'NONE',  ( 1.000000000000000000, 0.000000000000000000, 0.000000000000000000 ) ) ;
#72 = PERSON_AND_ORGANIZATION_ROLE ( 'creator' ) ;
#73 = ORIENTED_EDGE ( 'NONE', *, *, #74, .T. ) ;
#74 = EDGE_CURVE ( 'NONE', #218, #291, #111, .T. ) ;
#75 = PLANE ( 'NONE',  #98 ) ;
#76 = AXIS2_PLACEMENT_3D ( 'NONE', #54, #169, #122 ) ;
#77 = CARTESIAN_POINT ( 'NONE',  ( 0.000000000000000000, 0.000000000000000000, 0.000000000000000000 ) ) ;
#78 = APPROVAL_PERSON_ORGANIZATION ( #225, #195, #198 ) ;
#79 = DIRECTION ( 'NONE',  ( 1.000000000000000000, 0.000000000000000000, 0.000000000000000000 ) ) ;
#80 = CARTESIAN_POINT ( 'NONE',  ( 0.000000000000000000, 0.000000000000000000, 130.0000000000000000 ) ) ;
#81 = ORIENTED_EDGE ( 'NONE', *, *, #94, .T. ) ;
#82 =( LENGTH_UNIT ( ) NAMED_UNIT ( * ) SI_UNIT ( .MILLI., .METRE. ) );
#83 = AXIS2_PLACEMENT_3D ( 'NONE', #80, #2, #190 ) ;
#84 = PRODUCT ( 'd08d', 'd08d', '', ( #223 ) ) ;
#85 = AXIS2_PLACEMENT_3D ( 'NONE', #184, #279, #254 ) ;
#86 = EDGE_LOOP ( 'NONE', ( #177, #34, #11, #171 ) ) ;
#87 = DIRECTION ( 'NONE',  ( 0.000000000000000000, 0.000000000000000000, 1.000000000000000000 ) ) ;
#88 = ORGANIZATION ( 'NEURÈENÝ', 'NEURÈENÝ', '' ) ;
#89 = VERTEX_POINT ( 'NONE', #14 ) ;
#90 = PERSON_AND_ORGANIZATION_ROLE ( 'classification_officer' ) ;
#91 = CARTESIAN_POINT ( 'NONE',  ( 0.000000000000000000, 0.000000000000000000, 130.0000000000000000 ) ) ;
#92 = DIRECTION ( 'NONE',  ( -0.000000000000000000, -0.000000000000000000, -1.000000000000000000 ) ) ;
#93 = CARTESIAN_POINT ( 'NONE',  ( 0.000000000000000000, 0.000000000000000000, 5.000000000000000000 ) ) ;
#94 = EDGE_CURVE ( 'NONE', #142, #55, #286, .T. ) ;
#95 = DIRECTION ( 'NONE',  ( 0.000000000000000000, 0.000000000000000000, 1.000000000000000000 ) ) ;
#96 = AXIS2_PLACEMENT_3D ( 'NONE', #91, #87, #71 ) ;
#97 = FACE_OUTER_BOUND ( 'NONE', #298, .T. ) ;
#98 = AXIS2_PLACEMENT_3D ( 'NONE', #170, #193, #290 ) ;
#99 = CARTESIAN_POINT ( 'NONE',  ( 0.000000000000000000, 0.000000000000000000, 5.000000000000000000 ) ) ;
#100 = CC_DESIGN_PERSON_AND_ORGANIZATION_ASSIGNMENT ( #205, #72, ( #203 ) ) ;
#101 = PRODUCT_DEFINITION_SHAPE ( 'NONE', 'NONE',  #107 ) ;
#102 = EDGE_LOOP ( 'NONE', ( #127, #274, #23, #194 ) ) ;
#103 = EDGE_CURVE ( 'NONE', #89, #304, #243, .T. ) ;
#104 = EDGE_CURVE ( 'NONE', #268, #196, #8, .T. ) ;
#105 = ORIENTED_EDGE ( 'NONE', *, *, #258, .T. ) ;
#106 = CALENDAR_DATE ( 2022, 7, 7 ) ;
#107 = PRODUCT_DEFINITION ( 'NEZNÁMÝ', '', #203, #250 ) ;
#108 = ORIENTED_EDGE ( 'NONE', *, *, #236, .T. ) ;
#109 = DIRECTION ( 'NONE',  ( 0.000000000000000000, 0.000000000000000000, 1.000000000000000000 ) ) ;
#110 = CARTESIAN_POINT ( 'NONE',  ( 5.000000000000000000, 6.123233995736766282E-16, 130.0000000000000000 ) ) ;
#111 = CIRCLE ( 'NONE', #144, 5.200000000000000178 ) ;
#112 = APPROVAL ( #15, 'NEURÈENÝ' ) ;
#113 = VECTOR ( 'NONE', #179, 1000.000000000000000 ) ;
#114 = COORDINATED_UNIVERSAL_TIME_OFFSET ( 1, 0, .AHEAD. ) ;
#115 = DIRECTION ( 'NONE',  ( 1.000000000000000000, 0.000000000000000000, 0.000000000000000000 ) ) ;
#116 = APPROVAL_DATE_TIME ( #278, #112 ) ;
#117 = FACE_OUTER_BOUND ( 'NONE', #257, .T. ) ;
#118 = LINE ( 'NONE', #27, #269 ) ;
#119 = CARTESIAN_POINT ( 'NONE',  ( -8.000000000000000000, 0.000000000000000000, 5.000000000000000000 ) ) ;
#120 = APPLICATION_CONTEXT ( 'configuration controlled 3d designs of mechanical parts and assemblies' ) ;
#121 = FACE_OUTER_BOUND ( 'NONE', #220, .T. ) ;
#122 = DIRECTION ( 'NONE',  ( 0.000000000000000000, 0.000000000000000000, -1.000000000000000000 ) ) ;
#123 = CC_DESIGN_APPROVAL ( #112, ( #107 ) ) ;
#124 = APPROVAL ( #162, 'NEURÈENÝ' ) ;
#125 =( NAMED_UNIT ( * ) PLANE_ANGLE_UNIT ( ) SI_UNIT ( $, .RADIAN. ) );
#126 = ORIENTED_EDGE ( 'NONE', *, *, #221, .F. ) ;
#127 = ORIENTED_EDGE ( 'NONE', *, *, #132, .F. ) ;
#128 = SECURITY_CLASSIFICATION_LEVEL ( 'unclassified' ) ;
#129 = DIRECTION ( 'NONE',  ( 0.000000000000000000, 0.000000000000000000, 1.000000000000000000 ) ) ;
#130 = APPLICATION_PROTOCOL_DEFINITION ( 'international standard', 'config_control_design', 1994, #204 ) ;
#131 = DIRECTION ( 'NONE',  ( 1.000000000000000000, 0.000000000000000000, 0.000000000000000000 ) ) ;
#132 = EDGE_CURVE ( 'NONE', #182, #218, #18, .T. ) ;
#133 = DATE_TIME_ROLE ( 'creation_date' ) ;
#134 = DIRECTION ( 'NONE',  ( -0.000000000000000000, -0.000000000000000000, -1.000000000000000000 ) ) ;
#135 = AXIS2_PLACEMENT_3D ( 'NONE', #200, #92, #202 ) ;
#136 = ADVANCED_FACE ( 'NONE', ( #26 ), #152, .F. ) ;
#137 = AXIS2_PLACEMENT_3D ( 'NONE', #265, #149, #239 ) ;
#138 = PERSON_AND_ORGANIZATION ( #262, #88 ) ;
#139 = CARTESIAN_POINT ( 'NONE',  ( 5.000000000000000000, 6.123233995736766282E-16, 5.199999999999996625 ) ) ;
#140 = LOCAL_TIME ( 14, 28, 31.00000000000000000, #45 ) ;
#141 = APPROVAL_ROLE ( '' ) ;
#142 = VERTEX_POINT ( 'NONE', #51 ) ;
#143 = CARTESIAN_POINT ( 'NONE',  ( -5.200000000000000178, 6.368163355566236381E-16, 4.999999999999998224 ) ) ;
#144 = AXIS2_PLACEMENT_3D ( 'NONE', #185, #134, #163 ) ;
#145 = CYLINDRICAL_SURFACE ( 'NONE', #197, 8.000000000000000000 ) ;
#146 = CARTESIAN_POINT ( 'NONE',  ( 0.000000000000000000, 0.000000000000000000, 130.0000000000000000 ) ) ;
#147 = PRODUCT_RELATED_PRODUCT_CATEGORY ( 'detail', '', ( #84 ) ) ;
#148 = CARTESIAN_POINT ( 'NONE',  ( 5.000000000000000000, 6.123233995736766282E-16, 130.0000000000000000 ) ) ;
#149 = DIRECTION ( 'NONE',  ( -0.000000000000000000, -0.000000000000000000, -1.000000000000000000 ) ) ;
#150 = AXIS2_PLACEMENT_3D ( 'NONE', #93, #259, #187 ) ;
#151 = ORIENTED_EDGE ( 'NONE', *, *, #132, .T. ) ;
#152 = TOROIDAL_SURFACE ( 'NONE', #28, 5.200000000000000178, 0.2000000000000000111 ) ;
#153 = ORIENTED_EDGE ( 'NONE', *, *, #52, .T. ) ;
#154 = ORIENTED_EDGE ( 'NONE', *, *, #52, .F. ) ;
#155 = EDGE_CURVE ( 'NONE', #182, #9, #219, .T. ) ;
#156 = ADVANCED_FACE ( 'NONE', ( #216 ), #6, .F. ) ;
#157 = DIRECTION ( 'NONE',  ( 0.000000000000000000, 0.000000000000000000, 1.000000000000000000 ) ) ;
#158 = CARTESIAN_POINT ( 'NONE',  ( 0.000000000000000000, 0.000000000000000000, 5.199999999999996625 ) ) ;
#159 = CARTESIAN_POINT ( 'NONE',  ( 0.000000000000000000, 0.000000000000000000, 0.000000000000000000 ) ) ;
#160 = CIRCLE ( 'NONE', #137, 5.200000000000000178 ) ;
#161 = AXIS2_PLACEMENT_3D ( 'NONE', #46, #44, #232 ) ;
#162 = APPROVAL_STATUS ( 'not_yet_approved' ) ;
#163 = DIRECTION ( 'NONE',  ( 1.000000000000000000, 0.000000000000000000, 0.000000000000000000 ) ) ;
#164 = ADVANCED_FACE ( 'NONE', ( #289 ), #145, .T. ) ;
#165 = DIRECTION ( 'NONE',  ( 1.000000000000000000, 0.000000000000000000, 0.000000000000000000 ) ) ;
#166 = CARTESIAN_POINT ( 'NONE',  ( 8.000000000000000000, 9.797174393178825657E-16, 5.000000000000000000 ) ) ;
#167 = AXIS2_PLACEMENT_3D ( 'NONE', #39, #109, #208 ) ;
#168 = CARTESIAN_POINT ( 'NONE',  ( -8.000000000000000000, 0.000000000000000000, 5.000000000000000000 ) ) ;
#169 = DIRECTION ( 'NONE',  ( 0.000000000000000000, -1.000000000000000000, 0.000000000000000000 ) ) ;
#170 = CARTESIAN_POINT ( 'NONE',  ( 0.000000000000000000, 0.000000000000000000, 5.000000000000000000 ) ) ;
#171 = ORIENTED_EDGE ( 'NONE', *, *, #236, .F. ) ;
#172 = SECURITY_CLASSIFICATION ( '', '', #128 ) ;
#173 =( NAMED_UNIT ( * ) SI_UNIT ( $, .STERADIAN. ) SOLID_ANGLE_UNIT ( ) );
#174 = ORIENTED_EDGE ( 'NONE', *, *, #94, .F. ) ;
#175 = AXIS2_PLACEMENT_3D ( 'NONE', #213, #285, #263 ) ;
#176 = CC_DESIGN_PERSON_AND_ORGANIZATION_ASSIGNMENT ( #12, #276, ( #84 ) ) ;
#177 = ORIENTED_EDGE ( 'NONE', *, *, #217, .F. ) ;
#178 = VECTOR ( 'NONE', #1, 1000.000000000000000 ) ;
#179 = DIRECTION ( 'NONE',  ( -0.000000000000000000, -0.000000000000000000, -1.000000000000000000 ) ) ;
#180 = CARTESIAN_POINT ( 'NONE',  ( 0.000000000000000000, 0.000000000000000000, 130.0000000000000000 ) ) ;
#181 =( GEOMETRIC_REPRESENTATION_CONTEXT ( 3 ) GLOBAL_UNCERTAINTY_ASSIGNED_CONTEXT ( ( #56 ) ) GLOBAL_UNIT_ASSIGNED_CONTEXT ( ( #82, #125, #173 ) ) REPRESENTATION_CONTEXT ( 'NONE', 'WORKASPACE' ) );
#182 = VERTEX_POINT ( 'NONE', #211 ) ;
#183 = COORDINATED_UNIVERSAL_TIME_OFFSET ( 1, 0, .AHEAD. ) ;
#184 = CARTESIAN_POINT ( 'NONE',  ( 0.000000000000000000, 0.000000000000000000, 5.000000000000000000 ) ) ;
#185 = CARTESIAN_POINT ( 'NONE',  ( 0.000000000000000000, 0.000000000000000000, 5.000000000000000000 ) ) ;
#186 = SHAPE_DEFINITION_REPRESENTATION ( #101, #68 ) ;
#187 = DIRECTION ( 'NONE',  ( -1.000000000000000000, 0.000000000000000000, 0.000000000000000000 ) ) ;
#188 = DIRECTION ( 'NONE',  ( 1.000000000000000000, 0.000000000000000000, -0.000000000000000000 ) ) ;
#189 = EDGE_CURVE ( 'NONE', #9, #291, #43, .T. ) ;
#190 = DIRECTION ( 'NONE',  ( 1.000000000000000000, 0.000000000000000000, 0.000000000000000000 ) ) ;
#191 = LOCAL_TIME ( 14, 28, 31.00000000000000000, #41 ) ;
#192 = CARTESIAN_POINT ( 'NONE',  ( 0.000000000000000000, 0.000000000000000000, 0.000000000000000000 ) ) ;
#193 = DIRECTION ( 'NONE',  ( 0.000000000000000000, 0.000000000000000000, 1.000000000000000000 ) ) ;
#194 = ORIENTED_EDGE ( 'NONE', *, *, #74, .F. ) ;
#195 = APPROVAL ( #19, 'NEURÈENÝ' ) ;
#196 = VERTEX_POINT ( 'NONE', #166 ) ;
#197 = AXIS2_PLACEMENT_3D ( 'NONE', #99, #29, #47 ) ;
#198 = APPROVAL_ROLE ( '' ) ;
#199 = DIRECTION ( 'NONE',  ( -0.000000000000000000, -0.000000000000000000, -1.000000000000000000 ) ) ;
#200 = CARTESIAN_POINT ( 'NONE',  ( 0.000000000000000000, 0.000000000000000000, 130.0000000000000000 ) ) ;
#201 = PERSON_AND_ORGANIZATION ( #262, #88 ) ;
#202 = DIRECTION ( 'NONE',  ( -1.000000000000000000, 0.000000000000000000, 0.000000000000000000 ) ) ;
#203 = PRODUCT_DEFINITION_FORMATION_WITH_SPECIFIED_SOURCE ( 'LIBOVOLNÝ', '', #84, .NOT_KNOWN. ) ;
#204 = APPLICATION_CONTEXT ( 'configuration controlled 3d designs of mechanical parts and assemblies' ) ;
#205 = PERSON_AND_ORGANIZATION ( #262, #88 ) ;
#206 = EDGE_LOOP ( 'NONE', ( #58, #151, #126, #240 ) ) ;
#207 = CC_DESIGN_DATE_AND_TIME_ASSIGNMENT ( #24, #256, ( #172 ) ) ;
#208 = DIRECTION ( 'NONE',  ( 1.000000000000000000, 0.000000000000000000, 0.000000000000000000 ) ) ;
#209 = LINE ( 'NONE', #110, #294 ) ;
#210 = DIRECTION ( 'NONE',  ( -0.000000000000000000, -0.000000000000000000, -1.000000000000000000 ) ) ;
#211 = CARTESIAN_POINT ( 'NONE',  ( -5.000000000000000000, 0.000000000000000000, 5.199999999999996625 ) ) ;
#212 = ADVANCED_FACE ( 'NONE', ( #48, #30 ), #75, .T. ) ;
#213 = CARTESIAN_POINT ( 'NONE',  ( 0.000000000000000000, 0.000000000000000000, 5.199999999999996625 ) ) ;
#214 = CARTESIAN_POINT ( 'NONE',  ( 0.000000000000000000, 0.000000000000000000, 5.199999999999996625 ) ) ;
#215 = CIRCLE ( 'NONE', #65, 8.000000000000000000 ) ;
#216 = FACE_OUTER_BOUND ( 'NONE', #16, .T. ) ;
#217 = EDGE_CURVE ( 'NONE', #304, #89, #302, .T. ) ;
#218 = VERTEX_POINT ( 'NONE', #143 ) ;
#219 = CIRCLE ( 'NONE', #227, 5.000000000000000000 ) ;
#220 = EDGE_LOOP ( 'NONE', ( #224, #153, #230, #273 ) ) ;
#221 = EDGE_CURVE ( 'NONE', #291, #218, #160, .T. ) ;
#222 = ORIENTED_EDGE ( 'NONE', *, *, #221, .T. ) ;
#223 = MECHANICAL_CONTEXT ( 'NONE', #204, 'mechanical' ) ;
#224 = ORIENTED_EDGE ( 'NONE', *, *, #25, .F. ) ;
#225 = PERSON_AND_ORGANIZATION ( #262, #88 ) ;
#226 = DIRECTION ( 'NONE',  ( 0.000000000000000000, 0.000000000000000000, 1.000000000000000000 ) ) ;
#227 = AXIS2_PLACEMENT_3D ( 'NONE', #214, #235, #79 ) ;
#228 = APPLICATION_PROTOCOL_DEFINITION ( 'international standard', 'config_control_design', 1994, #120 ) ;
#229 = APPROVAL_PERSON_ORGANIZATION ( #231, #124, #141 ) ;
#230 = ORIENTED_EDGE ( 'NONE', *, *, #233, .T. ) ;
#231 = PERSON_AND_ORGANIZATION ( #262, #88 ) ;
#232 = DIRECTION ( 'NONE',  ( -1.000000000000000000, 1.224646799147353454E-16, 0.000000000000000000 ) ) ;
#233 = EDGE_CURVE ( 'NONE', #55, #142, #253, .T. ) ;
#234 = DIRECTION ( 'NONE',  ( 0.000000000000000000, 0.000000000000000000, 1.000000000000000000 ) ) ;
#235 = DIRECTION ( 'NONE',  ( 0.000000000000000000, 0.000000000000000000, 1.000000000000000000 ) ) ;
#236 = EDGE_CURVE ( 'NONE', #89, #182, #118, .T. ) ;
#237 = FACE_OUTER_BOUND ( 'NONE', #206, .T. ) ;
#238 = DIRECTION ( 'NONE',  ( 1.000000000000000000, 0.000000000000000000, -0.000000000000000000 ) ) ;
#239 = DIRECTION ( 'NONE',  ( 1.000000000000000000, 0.000000000000000000, 0.000000000000000000 ) ) ;
#240 = ORIENTED_EDGE ( 'NONE', *, *, #189, .F. ) ;
#241 = ADVANCED_FACE ( 'NONE', ( #97 ), #264, .T. ) ;
#242 = AXIS2_PLACEMENT_3D ( 'NONE', #158, #129, #42 ) ;
#243 = CIRCLE ( 'NONE', #96, 5.000000000000000000 ) ;
#244 = ORIENTED_EDGE ( 'NONE', *, *, #155, .T. ) ;
#245 = ORIENTED_EDGE ( 'NONE', *, *, #25, .T. ) ;
#246 = CC_DESIGN_DATE_AND_TIME_ASSIGNMENT ( #251, #133, ( #107 ) ) ;
#247 = PERSON_AND_ORGANIZATION_ROLE ( 'design_supplier' ) ;
#248 = EDGE_LOOP ( 'NONE', ( #7, #245 ) ) ;
#249 = ORIENTED_EDGE ( 'NONE', *, *, #103, .F. ) ;
#250 = DESIGN_CONTEXT ( 'detailed design', #120, 'design' ) ;
#251 = DATE_AND_TIME ( #106, #261 ) ;
#252 = FACE_OUTER_BOUND ( 'NONE', #86, .T. ) ;
#253 = CIRCLE ( 'NONE', #275, 8.000000000000000000 ) ;
#254 = DIRECTION ( 'NONE',  ( 1.000000000000000000, 0.000000000000000000, 0.000000000000000000 ) ) ;
#255 = APPROVAL_PERSON_ORGANIZATION ( #138, #112, #22 ) ;
#256 = DATE_TIME_ROLE ( 'classification_date' ) ;
#257 = EDGE_LOOP ( 'NONE', ( #293, #249, #108, #244 ) ) ;
#258 = EDGE_CURVE ( 'NONE', #268, #142, #283, .T. ) ;
#259 = DIRECTION ( 'NONE',  ( -0.000000000000000000, -0.000000000000000000, -1.000000000000000000 ) ) ;
#260 = CARTESIAN_POINT ( 'NONE',  ( 0.000000000000000000, 0.000000000000000000, 5.199999999999996625 ) ) ;
#261 = LOCAL_TIME ( 14, 28, 31.00000000000000000, #300 ) ;
#262 = PERSON ( 'NEURÈENÝ', 'NEURÈENÝ', 'NEURÈENÝ', ('NEURÈENÝ'), ('NEURÈENÝ'), ('NEURÈENÝ') ) ;
#263 = DIRECTION ( 'NONE',  ( 1.000000000000000000, 0.000000000000000000, 0.000000000000000000 ) ) ;
#264 = PLANE ( 'NONE',  #270 ) ;
#265 = CARTESIAN_POINT ( 'NONE',  ( 0.000000000000000000, 0.000000000000000000, 5.000000000000000000 ) ) ;
#266 = EDGE_LOOP ( 'NONE', ( #222, #73 ) ) ;
#267 = ADVANCED_FACE ( 'NONE', ( #237 ), #60, .F. ) ;
#268 = VERTEX_POINT ( 'NONE', #119 ) ;
#269 = VECTOR ( 'NONE', #210, 1000.000000000000000 ) ;
#270 = AXIS2_PLACEMENT_3D ( 'NONE', #146, #234, #188 ) ;
#271 = ORIENTED_EDGE ( 'NONE', *, *, #217, .T. ) ;
#272 = CALENDAR_DATE ( 2022, 7, 7 ) ;
#273 = ORIENTED_EDGE ( 'NONE', *, *, #258, .F. ) ;
#274 = ORIENTED_EDGE ( 'NONE', *, *, #62, .F. ) ;
#275 = AXIS2_PLACEMENT_3D ( 'NONE', #77, #95, #165 ) ;
#276 = PERSON_AND_ORGANIZATION_ROLE ( 'design_owner' ) ;
#277 = CYLINDRICAL_SURFACE ( 'NONE', #35, 5.000000000000000000 ) ;
#278 = DATE_AND_TIME ( #272, #191 ) ;
#279 = DIRECTION ( 'NONE',  ( 0.000000000000000000, 0.000000000000000000, 1.000000000000000000 ) ) ;
#280 = APPROVAL_DATE_TIME ( #63, #195 ) ;
#281 = EDGE_LOOP ( 'NONE', ( #154, #37, #105, #81 ) ) ;
#282 = DATE_AND_TIME ( #296, #140 ) ;
#283 = LINE ( 'NONE', #168, #178 ) ;
#284 = DIRECTION ( 'NONE',  ( 0.000000000000000000, 0.000000000000000000, 1.000000000000000000 ) ) ;
#285 = DIRECTION ( 'NONE',  ( 0.000000000000000000, 0.000000000000000000, 1.000000000000000000 ) ) ;
#286 = CIRCLE ( 'NONE', #59, 8.000000000000000000 ) ;
#287 = MANIFOLD_SOLID_BREP ( 'Zaoblit1', #295 ) ;
#288 = LOCAL_TIME ( 14, 28, 31.00000000000000000, #114 ) ;
#289 = FACE_OUTER_BOUND ( 'NONE', #281, .T. ) ;
#290 = DIRECTION ( 'NONE',  ( 1.000000000000000000, 0.000000000000000000, -0.000000000000000000 ) ) ;
#291 = VERTEX_POINT ( 'NONE', #53 ) ;
#292 = CC_DESIGN_SECURITY_CLASSIFICATION ( #172, ( #203 ) ) ;
#293 = ORIENTED_EDGE ( 'NONE', *, *, #36, .F. ) ;
#294 = VECTOR ( 'NONE', #199, 1000.000000000000000 ) ;
#295 = CLOSED_SHELL ( 'NONE', ( #267, #49, #306, #164, #212, #156, #17, #241, #136 ) ) ;
#296 = CALENDAR_DATE ( 2022, 7, 7 ) ;
#297 = CALENDAR_DATE ( 2022, 7, 7 ) ;
#298 = EDGE_LOOP ( 'NONE', ( #61, #271 ) ) ;
#299 = CARTESIAN_POINT ( 'NONE',  ( 0.000000000000000000, 0.000000000000000000, 5.000000000000000000 ) ) ;
#300 = COORDINATED_UNIVERSAL_TIME_OFFSET ( 1, 0, .AHEAD. ) ;
#301 = CARTESIAN_POINT ( 'NONE',  ( 8.000000000000000000, 9.797174393178825657E-16, 0.000000000000000000 ) ) ;
#302 = CIRCLE ( 'NONE', #83, 5.000000000000000000 ) ;
#303 = PERSON_AND_ORGANIZATION ( #262, #88 ) ;
#304 = VERTEX_POINT ( 'NONE', #148 ) ;
#305 = PERSON_AND_ORGANIZATION_ROLE ( 'creator' ) ;
#306 = ADVANCED_FACE ( 'NONE', ( #121 ), #31, .T. ) ;
#307 = CYLINDRICAL_SURFACE ( 'NONE', #135, 5.000000000000000000 ) ;
ENDSEC;
END-ISO-10303-21;
