ISO-10303-21;
HEADER;
FILE_DESCRIPTION (( 'STEP AP203' ),
    '1' );
FILE_NAME ('e00e.STEP',
    '2023-02-12T11:09:05',
    ( '' ),
    ( '' ),
    'SwSTEP 2.0',
    'SolidWorks 2019',
    '' );
FILE_SCHEMA (( 'CONFIG_CONTROL_DESIGN' ));
ENDSEC;

DATA;
#1 = LOCAL_TIME ( 12, 9, 5.000000000000000000, #204 ) ;
#2 = ORIENTED_EDGE ( 'NONE', *, *, #20, .T. ) ;
#3 = PERSON_AND_ORGANIZATION ( #147, #91 ) ;
#4 = CARTESIAN_POINT ( 'NONE',  ( 0.000000000000000000, 0.000000000000000000, 5.000000000000000000 ) ) ;
#5 = ADVANCED_BREP_SHAPE_REPRESENTATION ( 'e00e', ( #51, #216 ), #196 ) ;
#6 = AXIS2_PLACEMENT_3D ( 'NONE', #41, #198, #16 ) ;
#7 = ORIENTED_EDGE ( 'NONE', *, *, #228, .F. ) ;
#8 = EDGE_CURVE ( 'NONE', #130, #233, #115, .T. ) ;
#9 = DIRECTION ( 'NONE',  ( 0.000000000000000000, 0.000000000000000000, 1.000000000000000000 ) ) ;
#10 = APPROVAL ( #174, 'NEURÈENÝ' ) ;
#11 = PRODUCT ( 'e00e', 'e00e', '', ( #83 ) ) ;
#12 = CARTESIAN_POINT ( 'NONE',  ( 7.000000000000000000, 8.572527594031473190E-16, 5.000000000000000000 ) ) ;
#13 = CYLINDRICAL_SURFACE ( 'NONE', #100, 4.500000000000000000 ) ;
#14 = ORIENTED_EDGE ( 'NONE', *, *, #176, .T. ) ;
#15 = PERSON_AND_ORGANIZATION ( #147, #91 ) ;
#16 = DIRECTION ( 'NONE',  ( 1.000000000000000000, 0.000000000000000000, -0.000000000000000000 ) ) ;
#17 = SECURITY_CLASSIFICATION_LEVEL ( 'unclassified' ) ;
#18 = CARTESIAN_POINT ( 'NONE',  ( 0.000000000000000000, 0.000000000000000000, 160.0000000000000000 ) ) ;
#19 = ORIENTED_EDGE ( 'NONE', *, *, #228, .T. ) ;
#20 = EDGE_CURVE ( 'NONE', #63, #49, #254, .T. ) ;
#21 = PERSON_AND_ORGANIZATION ( #147, #91 ) ;
#22 = ORIENTED_EDGE ( 'NONE', *, *, #206, .F. ) ;
#23 = DIRECTION ( 'NONE',  ( 0.000000000000000000, 0.000000000000000000, 1.000000000000000000 ) ) ;
#24 = FACE_OUTER_BOUND ( 'NONE', #200, .T. ) ;
#25 = CIRCLE ( 'NONE', #241, 7.000000000000000000 ) ;
#26 = LOCAL_TIME ( 12, 9, 5.000000000000000000, #81 ) ;
#27 = PRODUCT_DEFINITION ( 'NEZNÁMÝ', '', #159, #207 ) ;
#28 = DIRECTION ( 'NONE',  ( 1.000000000000000000, 0.000000000000000000, -0.000000000000000000 ) ) ;
#29 = CARTESIAN_POINT ( 'NONE',  ( 0.000000000000000000, 0.000000000000000000, 5.000000000000000000 ) ) ;
#30 = APPLICATION_CONTEXT ( 'configuration controlled 3d designs of mechanical parts and assemblies' ) ;
#31 = DIRECTION ( 'NONE',  ( 1.000000000000000000, 0.000000000000000000, 0.000000000000000000 ) ) ;
#32 = AXIS2_PLACEMENT_3D ( 'NONE', #75, #9, #108 ) ;
#33 = LINE ( 'NONE', #191, #152 ) ;
#34 = COORDINATED_UNIVERSAL_TIME_OFFSET ( 1, 0, .AHEAD. ) ;
#35 = UNCERTAINTY_MEASURE_WITH_UNIT (LENGTH_MEASURE( 1.000000000000000082E-05 ), #85, 'distance_accuracy_value', 'NONE');
#36 =( NAMED_UNIT ( * ) PLANE_ANGLE_UNIT ( ) SI_UNIT ( $, .RADIAN. ) );
#37 = COORDINATED_UNIVERSAL_TIME_OFFSET ( 1, 0, .AHEAD. ) ;
#38 = DIRECTION ( 'NONE',  ( 0.000000000000000000, 0.000000000000000000, 1.000000000000000000 ) ) ;
#39 = CC_DESIGN_PERSON_AND_ORGANIZATION_ASSIGNMENT ( #53, #253, ( #11 ) ) ;
#40 = CARTESIAN_POINT ( 'NONE',  ( -4.500000000000000000, 0.000000000000000000, 160.0000000000000000 ) ) ;
#41 = CARTESIAN_POINT ( 'NONE',  ( 0.000000000000000000, 0.000000000000000000, 5.000000000000000000 ) ) ;
#42 = AXIS2_PLACEMENT_3D ( 'NONE', #171, #68, #131 ) ;
#43 = ORIENTED_EDGE ( 'NONE', *, *, #222, .F. ) ;
#44 = PERSON_AND_ORGANIZATION_ROLE ( 'classification_officer' ) ;
#45 = ADVANCED_FACE ( 'NONE', ( #238 ), #182, .T. ) ;
#46 = EDGE_LOOP ( 'NONE', ( #155, #138 ) ) ;
#47 = PERSON_AND_ORGANIZATION_ROLE ( 'creator' ) ;
#48 = VERTEX_POINT ( 'NONE', #114 ) ;
#49 = VERTEX_POINT ( 'NONE', #84 ) ;
#50 = FACE_OUTER_BOUND ( 'NONE', #205, .T. ) ;
#51 = MANIFOLD_SOLID_BREP ( 'Pøidat vysunutím3', #70 ) ;
#52 = APPROVAL_PERSON_ORGANIZATION ( #224, #10, #203 ) ;
#53 = PERSON_AND_ORGANIZATION ( #147, #91 ) ;
#54 = CARTESIAN_POINT ( 'NONE',  ( 0.000000000000000000, 0.000000000000000000, 160.0000000000000000 ) ) ;
#55 = DIRECTION ( 'NONE',  ( 0.000000000000000000, 0.000000000000000000, 1.000000000000000000 ) ) ;
#56 = ADVANCED_FACE ( 'NONE', ( #71, #142 ), #221, .T. ) ;
#57 = DIRECTION ( 'NONE',  ( 1.000000000000000000, 0.000000000000000000, 0.000000000000000000 ) ) ;
#58 = CARTESIAN_POINT ( 'NONE',  ( 0.000000000000000000, 0.000000000000000000, 0.000000000000000000 ) ) ;
#59 = CIRCLE ( 'NONE', #96, 4.500000000000000000 ) ;
#60 = EDGE_LOOP ( 'NONE', ( #140, #175 ) ) ;
#61 = DIRECTION ( 'NONE',  ( -0.000000000000000000, -0.000000000000000000, -1.000000000000000000 ) ) ;
#62 = EDGE_CURVE ( 'NONE', #233, #69, #146, .T. ) ;
#63 = VERTEX_POINT ( 'NONE', #97 ) ;
#64 = PERSON_AND_ORGANIZATION ( #147, #91 ) ;
#65 = VERTEX_POINT ( 'NONE', #185 ) ;
#66 = CC_DESIGN_PERSON_AND_ORGANIZATION_ASSIGNMENT ( #179, #44, ( #229 ) ) ;
#67 = DIRECTION ( 'NONE',  ( 0.000000000000000000, 0.000000000000000000, 1.000000000000000000 ) ) ;
#68 = DIRECTION ( 'NONE',  ( 0.000000000000000000, 0.000000000000000000, 1.000000000000000000 ) ) ;
#69 = VERTEX_POINT ( 'NONE', #208 ) ;
#70 = CLOSED_SHELL ( 'NONE', ( #95, #113, #119, #56, #162, #132, #45 ) ) ;
#71 = FACE_BOUND ( 'NONE', #242, .T. ) ;
#72 = PERSON_AND_ORGANIZATION ( #147, #91 ) ;
#73 = CYLINDRICAL_SURFACE ( 'NONE', #164, 7.000000000000000000 ) ;
#74 = CC_DESIGN_APPROVAL ( #250, ( #27 ) ) ;
#75 = CARTESIAN_POINT ( 'NONE',  ( 0.000000000000000000, 0.000000000000000000, 5.000000000000000000 ) ) ;
#76 = CARTESIAN_POINT ( 'NONE',  ( 0.000000000000000000, 0.000000000000000000, 0.000000000000000000 ) ) ;
#77 = EDGE_CURVE ( 'NONE', #65, #243, #239, .T. ) ;
#78 =( NAMED_UNIT ( * ) SI_UNIT ( $, .STERADIAN. ) SOLID_ANGLE_UNIT ( ) );
#79 = DATE_AND_TIME ( #236, #129 ) ;
#80 = CARTESIAN_POINT ( 'NONE',  ( 4.500000000000000000, 5.510910596163088569E-16, 160.0000000000000000 ) ) ;
#81 = COORDINATED_UNIVERSAL_TIME_OFFSET ( 1, 0, .AHEAD. ) ;
#82 = DIRECTION ( 'NONE',  ( 1.000000000000000000, 0.000000000000000000, 0.000000000000000000 ) ) ;
#83 = MECHANICAL_CONTEXT ( 'NONE', #30, 'mechanical' ) ;
#84 = CARTESIAN_POINT ( 'NONE',  ( -4.500000000000000000, 0.000000000000000000, 5.000000000000000000 ) ) ;
#85 =( LENGTH_UNIT ( ) NAMED_UNIT ( * ) SI_UNIT ( .MILLI., .METRE. ) );
#86 = DATE_TIME_ROLE ( 'creation_date' ) ;
#87 = ORIENTED_EDGE ( 'NONE', *, *, #172, .T. ) ;
#88 = DIRECTION ( 'NONE',  ( 0.000000000000000000, 0.000000000000000000, 1.000000000000000000 ) ) ;
#89 = EDGE_CURVE ( 'NONE', #48, #130, #166, .T. ) ;
#90 = DIRECTION ( 'NONE',  ( 1.000000000000000000, 0.000000000000000000, -0.000000000000000000 ) ) ;
#91 = ORGANIZATION ( 'NEURÈENÝ', 'NEURÈENÝ', '' ) ;
#92 = APPLICATION_PROTOCOL_DEFINITION ( 'international standard', 'config_control_design', 1994, #109 ) ;
#93 = CYLINDRICAL_SURFACE ( 'NONE', #128, 4.500000000000000000 ) ;
#94 = DIRECTION ( 'NONE',  ( -1.000000000000000000, 0.000000000000000000, 0.000000000000000000 ) ) ;
#95 = ADVANCED_FACE ( 'NONE', ( #24 ), #93, .T. ) ;
#96 = AXIS2_PLACEMENT_3D ( 'NONE', #29, #38, #31 ) ;
#97 = CARTESIAN_POINT ( 'NONE',  ( 4.500000000000000000, 5.510910596163088569E-16, 5.000000000000000000 ) ) ;
#98 = APPROVAL_ROLE ( '' ) ;
#99 = DIRECTION ( 'NONE',  ( -1.000000000000000000, 0.000000000000000000, 0.000000000000000000 ) ) ;
#100 = AXIS2_PLACEMENT_3D ( 'NONE', #192, #235, #99 ) ;
#101 = LINE ( 'NONE', #40, #125 ) ;
#102 = APPROVAL_STATUS ( 'not_yet_approved' ) ;
#103 = ORIENTED_EDGE ( 'NONE', *, *, #176, .F. ) ;
#104 = ORIENTED_EDGE ( 'NONE', *, *, #206, .T. ) ;
#105 = ORIENTED_EDGE ( 'NONE', *, *, #20, .F. ) ;
#106 = APPROVAL_DATE_TIME ( #220, #10 ) ;
#107 = ORIENTED_EDGE ( 'NONE', *, *, #89, .F. ) ;
#108 = DIRECTION ( 'NONE',  ( 1.000000000000000000, 0.000000000000000000, 0.000000000000000000 ) ) ;
#109 = APPLICATION_CONTEXT ( 'configuration controlled 3d designs of mechanical parts and assemblies' ) ;
#110 = DIRECTION ( 'NONE',  ( -1.000000000000000000, 0.000000000000000000, 0.000000000000000000 ) ) ;
#111 = COORDINATED_UNIVERSAL_TIME_OFFSET ( 1, 0, .AHEAD. ) ;
#112 = AXIS2_PLACEMENT_3D ( 'NONE', #4, #23, #82 ) ;
#113 = ADVANCED_FACE ( 'NONE', ( #50 ), #73, .T. ) ;
#114 = CARTESIAN_POINT ( 'NONE',  ( -7.000000000000000000, 0.000000000000000000, 5.000000000000000000 ) ) ;
#115 = LINE ( 'NONE', #161, #170 ) ;
#116 = EDGE_LOOP ( 'NONE', ( #121, #107, #87, #104 ) ) ;
#117 = PERSON_AND_ORGANIZATION_ROLE ( 'design_supplier' ) ;
#118 = DIRECTION ( 'NONE',  ( -0.000000000000000000, -0.000000000000000000, -1.000000000000000000 ) ) ;
#119 = ADVANCED_FACE ( 'NONE', ( #149 ), #122, .T. ) ;
#120 = LOCAL_TIME ( 12, 9, 5.000000000000000000, #37 ) ;
#121 = ORIENTED_EDGE ( 'NONE', *, *, #8, .F. ) ;
#122 = CYLINDRICAL_SURFACE ( 'NONE', #202, 7.000000000000000000 ) ;
#123 = DIRECTION ( 'NONE',  ( 1.000000000000000000, 0.000000000000000000, 0.000000000000000000 ) ) ;
#124 = EDGE_CURVE ( 'NONE', #49, #63, #59, .T. ) ;
#125 = VECTOR ( 'NONE', #61, 1000.000000000000000 ) ;
#126 = DIRECTION ( 'NONE',  ( 0.000000000000000000, 0.000000000000000000, 1.000000000000000000 ) ) ;
#127 = CARTESIAN_POINT ( 'NONE',  ( -7.000000000000000000, 0.000000000000000000, 5.000000000000000000 ) ) ;
#128 = AXIS2_PLACEMENT_3D ( 'NONE', #54, #145, #110 ) ;
#129 = LOCAL_TIME ( 12, 9, 5.000000000000000000, #111 ) ;
#130 = VERTEX_POINT ( 'NONE', #12 ) ;
#131 = DIRECTION ( 'NONE',  ( 1.000000000000000000, 0.000000000000000000, 0.000000000000000000 ) ) ;
#132 = ADVANCED_FACE ( 'NONE', ( #232 ), #13, .T. ) ;
#133 = EDGE_LOOP ( 'NONE', ( #103, #226, #19, #193 ) ) ;
#134 = DIRECTION ( 'NONE',  ( 1.000000000000000000, 0.000000000000000000, 0.000000000000000000 ) ) ;
#135 = APPROVAL_DATE_TIME ( #201, #188 ) ;
#136 = AXIS2_PLACEMENT_3D ( 'NONE', #249, #126, #57 ) ;
#137 = CC_DESIGN_APPROVAL ( #188, ( #229 ) ) ;
#138 = ORIENTED_EDGE ( 'NONE', *, *, #167, .T. ) ;
#139 = DATE_AND_TIME ( #195, #231 ) ;
#140 = ORIENTED_EDGE ( 'NONE', *, *, #89, .T. ) ;
#141 = ORIENTED_EDGE ( 'NONE', *, *, #124, .F. ) ;
#142 = FACE_OUTER_BOUND ( 'NONE', #60, .T. ) ;
#143 = APPROVAL_PERSON_ORGANIZATION ( #72, #250, #98 ) ;
#144 = CARTESIAN_POINT ( 'NONE',  ( 0.000000000000000000, 0.000000000000000000, 5.000000000000000000 ) ) ;
#145 = DIRECTION ( 'NONE',  ( -0.000000000000000000, -0.000000000000000000, -1.000000000000000000 ) ) ;
#146 = CIRCLE ( 'NONE', #151, 7.000000000000000000 ) ;
#147 = PERSON ( 'NEURÈENÝ', 'NEURÈENÝ', 'NEURÈENÝ', ('NEURÈENÝ'), ('NEURÈENÝ'), ('NEURÈENÝ') ) ;
#148 = CIRCLE ( 'NONE', #42, 7.000000000000000000 ) ;
#149 = FACE_OUTER_BOUND ( 'NONE', #116, .T. ) ;
#150 = PRODUCT_RELATED_PRODUCT_CATEGORY ( 'detail', '', ( #11 ) ) ;
#151 = AXIS2_PLACEMENT_3D ( 'NONE', #158, #210, #163 ) ;
#152 = VECTOR ( 'NONE', #169, 1000.000000000000000 ) ;
#153 = CC_DESIGN_PERSON_AND_ORGANIZATION_ASSIGNMENT ( #64, #47, ( #159 ) ) ;
#154 = DATE_AND_TIME ( #230, #1 ) ;
#155 = ORIENTED_EDGE ( 'NONE', *, *, #77, .T. ) ;
#156 = DATE_TIME_ROLE ( 'classification_date' ) ;
#157 = CARTESIAN_POINT ( 'NONE',  ( 0.000000000000000000, 0.000000000000000000, 0.000000000000000000 ) ) ;
#158 = CARTESIAN_POINT ( 'NONE',  ( 0.000000000000000000, 0.000000000000000000, 0.000000000000000000 ) ) ;
#159 = PRODUCT_DEFINITION_FORMATION_WITH_SPECIFIED_SOURCE ( 'LIBOVOLNÝ', '', #11, .NOT_KNOWN. ) ;
#160 = ORIENTED_EDGE ( 'NONE', *, *, #8, .T. ) ;
#161 = CARTESIAN_POINT ( 'NONE',  ( 7.000000000000000000, 8.572527594031473190E-16, 5.000000000000000000 ) ) ;
#162 = ADVANCED_FACE ( 'NONE', ( #189 ), #168, .F. ) ;
#163 = DIRECTION ( 'NONE',  ( 1.000000000000000000, 0.000000000000000000, 0.000000000000000000 ) ) ;
#164 = AXIS2_PLACEMENT_3D ( 'NONE', #186, #165, #94 ) ;
#165 = DIRECTION ( 'NONE',  ( -0.000000000000000000, -0.000000000000000000, -1.000000000000000000 ) ) ;
#166 = CIRCLE ( 'NONE', #32, 7.000000000000000000 ) ;
#167 = EDGE_CURVE ( 'NONE', #243, #65, #234, .T. ) ;
#168 = PLANE ( 'NONE',  #209 ) ;
#169 = DIRECTION ( 'NONE',  ( -0.000000000000000000, -0.000000000000000000, -1.000000000000000000 ) ) ;
#170 = VECTOR ( 'NONE', #118, 1000.000000000000000 ) ;
#171 = CARTESIAN_POINT ( 'NONE',  ( 0.000000000000000000, 0.000000000000000000, 5.000000000000000000 ) ) ;
#172 = EDGE_CURVE ( 'NONE', #48, #69, #214, .T. ) ;
#173 = APPROVAL_PERSON_ORGANIZATION ( #3, #188, #197 ) ;
#174 = APPROVAL_STATUS ( 'not_yet_approved' ) ;
#175 = ORIENTED_EDGE ( 'NONE', *, *, #222, .T. ) ;
#176 = EDGE_CURVE ( 'NONE', #243, #63, #33, .T. ) ;
#177 = DIRECTION ( 'NONE',  ( 0.000000000000000000, 0.000000000000000000, 1.000000000000000000 ) ) ;
#178 = DIRECTION ( 'NONE',  ( 1.000000000000000000, 0.000000000000000000, 0.000000000000000000 ) ) ;
#179 = PERSON_AND_ORGANIZATION ( #147, #91 ) ;
#180 = EDGE_LOOP ( 'NONE', ( #22, #227 ) ) ;
#181 = CC_DESIGN_PERSON_AND_ORGANIZATION_ASSIGNMENT ( #15, #217, ( #27 ) ) ;
#182 = PLANE ( 'NONE',  #248 ) ;
#183 = CC_DESIGN_SECURITY_CLASSIFICATION ( #229, ( #159 ) ) ;
#184 = CARTESIAN_POINT ( 'NONE',  ( 0.000000000000000000, 0.000000000000000000, 160.0000000000000000 ) ) ;
#185 = CARTESIAN_POINT ( 'NONE',  ( -4.500000000000000000, 0.000000000000000000, 160.0000000000000000 ) ) ;
#186 = CARTESIAN_POINT ( 'NONE',  ( 0.000000000000000000, 0.000000000000000000, 5.000000000000000000 ) ) ;
#187 = PRODUCT_DEFINITION_SHAPE ( 'NONE', 'NONE',  #27 ) ;
#188 = APPROVAL ( #102, 'NEURÈENÝ' ) ;
#189 = FACE_OUTER_BOUND ( 'NONE', #180, .T. ) ;
#190 = CC_DESIGN_APPROVAL ( #10, ( #159 ) ) ;
#191 = CARTESIAN_POINT ( 'NONE',  ( 4.500000000000000000, 5.510910596163088569E-16, 160.0000000000000000 ) ) ;
#192 = CARTESIAN_POINT ( 'NONE',  ( 0.000000000000000000, 0.000000000000000000, 160.0000000000000000 ) ) ;
#193 = ORIENTED_EDGE ( 'NONE', *, *, #124, .T. ) ;
#194 = CC_DESIGN_PERSON_AND_ORGANIZATION_ASSIGNMENT ( #21, #117, ( #159 ) ) ;
#195 = CALENDAR_DATE ( 2023, 12, 2 ) ;
#196 =( GEOMETRIC_REPRESENTATION_CONTEXT ( 3 ) GLOBAL_UNCERTAINTY_ASSIGNED_CONTEXT ( ( #35 ) ) GLOBAL_UNIT_ASSIGNED_CONTEXT ( ( #85, #36, #78 ) ) REPRESENTATION_CONTEXT ( 'NONE', 'WORKASPACE' ) );
#197 = APPROVAL_ROLE ( '' ) ;
#198 = DIRECTION ( 'NONE',  ( 0.000000000000000000, 0.000000000000000000, 1.000000000000000000 ) ) ;
#199 = APPLICATION_PROTOCOL_DEFINITION ( 'international standard', 'config_control_design', 1994, #30 ) ;
#200 = EDGE_LOOP ( 'NONE', ( #252, #14, #2, #7 ) ) ;
#201 = DATE_AND_TIME ( #237, #26 ) ;
#202 = AXIS2_PLACEMENT_3D ( 'NONE', #144, #247, #211 ) ;
#203 = APPROVAL_ROLE ( '' ) ;
#204 = COORDINATED_UNIVERSAL_TIME_OFFSET ( 1, 0, .AHEAD. ) ;
#205 = EDGE_LOOP ( 'NONE', ( #43, #160, #240, #251 ) ) ;
#206 = EDGE_CURVE ( 'NONE', #69, #233, #25, .T. ) ;
#207 = DESIGN_CONTEXT ( 'detailed design', #109, 'design' ) ;
#208 = CARTESIAN_POINT ( 'NONE',  ( -7.000000000000000000, 0.000000000000000000, 0.000000000000000000 ) ) ;
#209 = AXIS2_PLACEMENT_3D ( 'NONE', #58, #55, #28 ) ;
#210 = DIRECTION ( 'NONE',  ( 0.000000000000000000, 0.000000000000000000, 1.000000000000000000 ) ) ;
#211 = DIRECTION ( 'NONE',  ( -1.000000000000000000, 0.000000000000000000, 0.000000000000000000 ) ) ;
#212 = VECTOR ( 'NONE', #215, 1000.000000000000000 ) ;
#213 = CC_DESIGN_DATE_AND_TIME_ASSIGNMENT ( #79, #156, ( #229 ) ) ;
#214 = LINE ( 'NONE', #127, #212 ) ;
#215 = DIRECTION ( 'NONE',  ( -0.000000000000000000, -0.000000000000000000, -1.000000000000000000 ) ) ;
#216 = AXIS2_PLACEMENT_3D ( 'NONE', #157, #67, #134 ) ;
#217 = PERSON_AND_ORGANIZATION_ROLE ( 'creator' ) ;
#218 = CARTESIAN_POINT ( 'NONE',  ( 7.000000000000000000, 8.572527594031473190E-16, 0.000000000000000000 ) ) ;
#219 = APPROVAL_STATUS ( 'not_yet_approved' ) ;
#220 = DATE_AND_TIME ( #223, #120 ) ;
#221 = PLANE ( 'NONE',  #6 ) ;
#222 = EDGE_CURVE ( 'NONE', #130, #48, #148, .T. ) ;
#223 = CALENDAR_DATE ( 2023, 12, 2 ) ;
#224 = PERSON_AND_ORGANIZATION ( #147, #91 ) ;
#225 = APPROVAL_DATE_TIME ( #154, #250 ) ;
#226 = ORIENTED_EDGE ( 'NONE', *, *, #77, .F. ) ;
#227 = ORIENTED_EDGE ( 'NONE', *, *, #62, .F. ) ;
#228 = EDGE_CURVE ( 'NONE', #65, #49, #101, .T. ) ;
#229 = SECURITY_CLASSIFICATION ( '', '', #17 ) ;
#230 = CALENDAR_DATE ( 2023, 12, 2 ) ;
#231 = LOCAL_TIME ( 12, 9, 5.000000000000000000, #34 ) ;
#232 = FACE_OUTER_BOUND ( 'NONE', #133, .T. ) ;
#233 = VERTEX_POINT ( 'NONE', #218 ) ;
#234 = CIRCLE ( 'NONE', #136, 4.500000000000000000 ) ;
#235 = DIRECTION ( 'NONE',  ( -0.000000000000000000, -0.000000000000000000, -1.000000000000000000 ) ) ;
#236 = CALENDAR_DATE ( 2023, 12, 2 ) ;
#237 = CALENDAR_DATE ( 2023, 12, 2 ) ;
#238 = FACE_OUTER_BOUND ( 'NONE', #46, .T. ) ;
#239 = CIRCLE ( 'NONE', #245, 4.500000000000000000 ) ;
#240 = ORIENTED_EDGE ( 'NONE', *, *, #62, .T. ) ;
#241 = AXIS2_PLACEMENT_3D ( 'NONE', #76, #177, #178 ) ;
#242 = EDGE_LOOP ( 'NONE', ( #141, #105 ) ) ;
#243 = VERTEX_POINT ( 'NONE', #80 ) ;
#244 = CC_DESIGN_DATE_AND_TIME_ASSIGNMENT ( #139, #86, ( #27 ) ) ;
#245 = AXIS2_PLACEMENT_3D ( 'NONE', #184, #246, #123 ) ;
#246 = DIRECTION ( 'NONE',  ( 0.000000000000000000, 0.000000000000000000, 1.000000000000000000 ) ) ;
#247 = DIRECTION ( 'NONE',  ( -0.000000000000000000, -0.000000000000000000, -1.000000000000000000 ) ) ;
#248 = AXIS2_PLACEMENT_3D ( 'NONE', #18, #88, #90 ) ;
#249 = CARTESIAN_POINT ( 'NONE',  ( 0.000000000000000000, 0.000000000000000000, 160.0000000000000000 ) ) ;
#250 = APPROVAL ( #219, 'NEURÈENÝ' ) ;
#251 = ORIENTED_EDGE ( 'NONE', *, *, #172, .F. ) ;
#252 = ORIENTED_EDGE ( 'NONE', *, *, #167, .F. ) ;
#253 = PERSON_AND_ORGANIZATION_ROLE ( 'design_owner' ) ;
#254 = CIRCLE ( 'NONE', #112, 4.500000000000000000 ) ;
#255 = SHAPE_DEFINITION_REPRESENTATION ( #187, #5 ) ;
ENDSEC;
END-ISO-10303-21;
