ISO-10303-21;
HEADER;
FILE_DESCRIPTION (( 'STEP AP203' ),
    '1' );
FILE_NAME ('5dc6.STEP',
    '2022-07-07T12:18:17',
    ( '' ),
    ( '' ),
    'SwSTEP 2.0',
    'SolidWorks 2019',
    '' );
FILE_SCHEMA (( 'CONFIG_CONTROL_DESIGN' ));
ENDSEC;

DATA;
#1 = DIRECTION ( 'NONE',  ( -0.000000000000000000, -0.000000000000000000, -1.000000000000000000 ) ) ;
#2 = ORIENTED_EDGE ( 'NONE', *, *, #289, .F. ) ;
#3 = VECTOR ( 'NONE', #52, 1000.000000000000000 ) ;
#4 = CARTESIAN_POINT ( 'NONE',  ( 0.000000000000000000, 0.000000000000000000, 208.0000000000000284 ) ) ;
#5 = DIRECTION ( 'NONE',  ( 1.000000000000000000, 0.000000000000000000, 0.000000000000000000 ) ) ;
#6 = CARTESIAN_POINT ( 'NONE',  ( 10.20000000000000107, 0.000000000000000000, 8.000000000000007105 ) ) ;
#7 = ORIENTED_EDGE ( 'NONE', *, *, #22, .T. ) ;
#8 = DIRECTION ( 'NONE',  ( 1.000000000000000000, 0.000000000000000000, 0.000000000000000000 ) ) ;
#9 = DIRECTION ( 'NONE',  ( -0.000000000000000000, -0.000000000000000000, -1.000000000000000000 ) ) ;
#10 = VERTEX_POINT ( 'NONE', #272 ) ;
#11 = AXIS2_PLACEMENT_3D ( 'NONE', #82, #301, #199 ) ;
#12 = LOCAL_TIME ( 14, 18, 17.00000000000000000, #42 ) ;
#13 = DIRECTION ( 'NONE',  ( 1.000000000000000000, 0.000000000000000000, 0.000000000000000000 ) ) ;
#14 = EDGE_CURVE ( 'NONE', #80, #242, #178, .T. ) ;
#15 = PERSON_AND_ORGANIZATION ( #75, #287 ) ;
#16 = ORIENTED_EDGE ( 'NONE', *, *, #214, .T. ) ;
#17 = DIRECTION ( 'NONE',  ( 0.000000000000000000, 0.000000000000000000, 1.000000000000000000 ) ) ;
#18 = SECURITY_CLASSIFICATION_LEVEL ( 'unclassified' ) ;
#19 = CALENDAR_DATE ( 2022, 7, 7 ) ;
#20 = PERSON_AND_ORGANIZATION_ROLE ( 'classification_officer' ) ;
#21 = AXIS2_PLACEMENT_3D ( 'NONE', #27, #246, #106 ) ;
#22 = EDGE_CURVE ( 'NONE', #205, #208, #93, .T. ) ;
#23 = CIRCLE ( 'NONE', #66, 13.00000000000000178 ) ;
#24 = EDGE_CURVE ( 'NONE', #242, #80, #97, .T. ) ;
#25 = EDGE_LOOP ( 'NONE', ( #227, #7 ) ) ;
#26 = DIRECTION ( 'NONE',  ( -0.000000000000000000, -0.000000000000000000, -1.000000000000000000 ) ) ;
#27 = CARTESIAN_POINT ( 'NONE',  ( 10.20000000000000107, 0.000000000000000000, 8.200000000000013500 ) ) ;
#28 = AXIS2_PLACEMENT_3D ( 'NONE', #78, #34, #271 ) ;
#29 = CIRCLE ( 'NONE', #21, 0.2000000000000005107 ) ;
#30 = CARTESIAN_POINT ( 'NONE',  ( 0.000000000000000000, 0.000000000000000000, 0.000000000000000000 ) ) ;
#31 = DIRECTION ( 'NONE',  ( 1.000000000000000000, 0.000000000000000000, 0.000000000000000000 ) ) ;
#32 = CARTESIAN_POINT ( 'NONE',  ( 13.00000000000000178, 1.592040838891559293E-15, 8.000000000000000000 ) ) ;
#33 = CARTESIAN_POINT ( 'NONE',  ( 0.000000000000000000, 0.000000000000000000, 8.000000000000000000 ) ) ;
#34 = DIRECTION ( 'NONE',  ( -0.000000000000000000, -0.000000000000000000, -1.000000000000000000 ) ) ;
#35 = ORIENTED_EDGE ( 'NONE', *, *, #24, .T. ) ;
#36 = ORIENTED_EDGE ( 'NONE', *, *, #142, .T. ) ;
#37 = UNCERTAINTY_MEASURE_WITH_UNIT (LENGTH_MEASURE( 1.000000000000000082E-05 ), #164, 'distance_accuracy_value', 'NONE');
#38 = DIRECTION ( 'NONE',  ( 1.000000000000000000, 0.000000000000000000, 0.000000000000000000 ) ) ;
#39 = ADVANCED_FACE ( 'NONE', ( #172 ), #101, .T. ) ;
#40 = DATE_TIME_ROLE ( 'creation_date' ) ;
#41 = CIRCLE ( 'NONE', #198, 10.00000000000000000 ) ;
#42 = COORDINATED_UNIVERSAL_TIME_OFFSET ( 1, 0, .AHEAD. ) ;
#43 = APPROVAL_ROLE ( '' ) ;
#44 = PERSON_AND_ORGANIZATION ( #75, #287 ) ;
#45 = SHAPE_DEFINITION_REPRESENTATION ( #120, #147 ) ;
#46 = AXIS2_PLACEMENT_3D ( 'NONE', #77, #291, #79 ) ;
#47 = ADVANCED_FACE ( 'NONE', ( #154, #261 ), #103, .T. ) ;
#48 =( GEOMETRIC_REPRESENTATION_CONTEXT ( 3 ) GLOBAL_UNCERTAINTY_ASSIGNED_CONTEXT ( ( #37 ) ) GLOBAL_UNIT_ASSIGNED_CONTEXT ( ( #164, #215, #112 ) ) REPRESENTATION_CONTEXT ( 'NONE', 'WORKASPACE' ) );
#49 = PRODUCT_DEFINITION_FORMATION_WITH_SPECIFIED_SOURCE ( 'LIBOVOLNÝ', '', #182, .NOT_KNOWN. ) ;
#50 = CARTESIAN_POINT ( 'NONE',  ( 10.00000000000000000, 1.224646799147353256E-15, 8.200000000000013500 ) ) ;
#51 = DIRECTION ( 'NONE',  ( -0.000000000000000000, -0.000000000000000000, -1.000000000000000000 ) ) ;
#52 = DIRECTION ( 'NONE',  ( -0.000000000000000000, -0.000000000000000000, -1.000000000000000000 ) ) ;
#53 = DIRECTION ( 'NONE',  ( 1.000000000000000000, 0.000000000000000000, 0.000000000000000000 ) ) ;
#54 = ORIENTED_EDGE ( 'NONE', *, *, #14, .F. ) ;
#55 = APPROVAL_PERSON_ORGANIZATION ( #161, #140, #254 ) ;
#56 = CC_DESIGN_PERSON_AND_ORGANIZATION_ASSIGNMENT ( #280, #234, ( #223 ) ) ;
#57 = CARTESIAN_POINT ( 'NONE',  ( 0.000000000000000000, 0.000000000000000000, 8.200000000000013500 ) ) ;
#58 = CARTESIAN_POINT ( 'NONE',  ( -10.00000000000000000, 0.000000000000000000, 208.0000000000000284 ) ) ;
#59 = ORIENTED_EDGE ( 'NONE', *, *, #152, .F. ) ;
#60 = DIRECTION ( 'NONE',  ( 0.000000000000000000, 0.000000000000000000, 1.000000000000000000 ) ) ;
#61 = CARTESIAN_POINT ( 'NONE',  ( 0.000000000000000000, 0.000000000000000000, 8.000000000000000000 ) ) ;
#62 = ORIENTED_EDGE ( 'NONE', *, *, #217, .F. ) ;
#63 = FACE_OUTER_BOUND ( 'NONE', #249, .T. ) ;
#64 = CC_DESIGN_DATE_AND_TIME_ASSIGNMENT ( #138, #40, ( #223 ) ) ;
#65 = ORIENTED_EDGE ( 'NONE', *, *, #169, .T. ) ;
#66 = AXIS2_PLACEMENT_3D ( 'NONE', #110, #102, #263 ) ;
#67 = DATE_AND_TIME ( #89, #196 ) ;
#68 = DIRECTION ( 'NONE',  ( 1.000000000000000000, 0.000000000000000000, 0.000000000000000000 ) ) ;
#69 = CIRCLE ( 'NONE', #11, 13.00000000000000178 ) ;
#70 = APPROVAL_DATE_TIME ( #116, #285 ) ;
#71 = EDGE_CURVE ( 'NONE', #208, #205, #168, .T. ) ;
#72 = CIRCLE ( 'NONE', #298, 13.00000000000000178 ) ;
#73 = DIRECTION ( 'NONE',  ( 0.000000000000000000, 0.000000000000000000, 1.000000000000000000 ) ) ;
#74 = CARTESIAN_POINT ( 'NONE',  ( 0.000000000000000000, 0.000000000000000000, 208.0000000000000284 ) ) ;
#75 = PERSON ( 'NEURÈENÝ', 'NEURÈENÝ', 'NEURÈENÝ', ('NEURÈENÝ'), ('NEURÈENÝ'), ('NEURÈENÝ') ) ;
#76 = DIRECTION ( 'NONE',  ( 0.000000000000000000, 0.000000000000000000, 1.000000000000000000 ) ) ;
#77 = CARTESIAN_POINT ( 'NONE',  ( 0.000000000000000000, 0.000000000000000000, 8.000000000000000000 ) ) ;
#78 = CARTESIAN_POINT ( 'NONE',  ( 0.000000000000000000, 0.000000000000000000, 8.000000000000000000 ) ) ;
#79 = DIRECTION ( 'NONE',  ( -1.000000000000000000, 0.000000000000000000, 0.000000000000000000 ) ) ;
#80 = VERTEX_POINT ( 'NONE', #58 ) ;
#81 = CIRCLE ( 'NONE', #277, 0.2000000000000005107 ) ;
#82 = CARTESIAN_POINT ( 'NONE',  ( 0.000000000000000000, 0.000000000000000000, 8.000000000000000000 ) ) ;
#83 = DIRECTION ( 'NONE',  ( 1.000000000000000000, 0.000000000000000000, 0.000000000000000000 ) ) ;
#84 = VERTEX_POINT ( 'NONE', #128 ) ;
#85 = CC_DESIGN_DATE_AND_TIME_ASSIGNMENT ( #216, #94, ( #238 ) ) ;
#86 = CARTESIAN_POINT ( 'NONE',  ( -10.20000000000000107, 1.249139735130300365E-15, 8.200000000000013500 ) ) ;
#87 = EDGE_LOOP ( 'NONE', ( #275, #35 ) ) ;
#88 = AXIS2_PLACEMENT_3D ( 'NONE', #221, #248, #38 ) ;
#89 = CALENDAR_DATE ( 2022, 7, 7 ) ;
#90 = CC_DESIGN_PERSON_AND_ORGANIZATION_ASSIGNMENT ( #286, #20, ( #238 ) ) ;
#91 = PERSON_AND_ORGANIZATION_ROLE ( 'creator' ) ;
#92 = EDGE_CURVE ( 'NONE', #253, #208, #29, .T. ) ;
#93 = CIRCLE ( 'NONE', #237, 10.20000000000000107 ) ;
#94 = DATE_TIME_ROLE ( 'classification_date' ) ;
#95 = EDGE_CURVE ( 'NONE', #84, #253, #41, .T. ) ;
#96 = APPROVAL_PERSON_ORGANIZATION ( #44, #279, #43 ) ;
#97 = CIRCLE ( 'NONE', #302, 10.00000000000000000 ) ;
#98 = CARTESIAN_POINT ( 'NONE',  ( 0.000000000000000000, 0.000000000000000000, 208.0000000000000284 ) ) ;
#99 = ORIENTED_EDGE ( 'NONE', *, *, #144, .F. ) ;
#100 = AXIS2_PLACEMENT_3D ( 'NONE', #30, #76, #251 ) ;
#101 = CYLINDRICAL_SURFACE ( 'NONE', #46, 13.00000000000000178 ) ;
#102 = DIRECTION ( 'NONE',  ( 0.000000000000000000, 0.000000000000000000, 1.000000000000000000 ) ) ;
#103 = PLANE ( 'NONE',  #267 ) ;
#104 = VERTEX_POINT ( 'NONE', #226 ) ;
#105 = CARTESIAN_POINT ( 'NONE',  ( 0.000000000000000000, 0.000000000000000000, 0.000000000000000000 ) ) ;
#106 = DIRECTION ( 'NONE',  ( 0.000000000000000000, 0.000000000000000000, -1.000000000000000000 ) ) ;
#107 = CC_DESIGN_APPROVAL ( #279, ( #238 ) ) ;
#108 = ORIENTED_EDGE ( 'NONE', *, *, #115, .T. ) ;
#109 = AXIS2_PLACEMENT_3D ( 'NONE', #4, #127, #201 ) ;
#110 = CARTESIAN_POINT ( 'NONE',  ( 0.000000000000000000, 0.000000000000000000, 8.000000000000000000 ) ) ;
#111 = ORIENTED_EDGE ( 'NONE', *, *, #22, .F. ) ;
#112 =( NAMED_UNIT ( * ) SI_UNIT ( $, .STERADIAN. ) SOLID_ANGLE_UNIT ( ) );
#113 = LOCAL_TIME ( 14, 18, 17.00000000000000000, #235 ) ;
#114 = APPROVAL_STATUS ( 'not_yet_approved' ) ;
#115 = EDGE_CURVE ( 'NONE', #104, #232, #126, .T. ) ;
#116 = DATE_AND_TIME ( #19, #113 ) ;
#117 = APPROVAL_STATUS ( 'not_yet_approved' ) ;
#118 = CALENDAR_DATE ( 2022, 7, 7 ) ;
#119 = ADVANCED_FACE ( 'NONE', ( #225 ), #181, .T. ) ;
#120 = PRODUCT_DEFINITION_SHAPE ( 'NONE', 'NONE',  #223 ) ;
#121 = AXIS2_PLACEMENT_3D ( 'NONE', #105, #145, #130 ) ;
#122 = CARTESIAN_POINT ( 'NONE',  ( 0.000000000000000000, 0.000000000000000000, 208.0000000000000284 ) ) ;
#123 = CARTESIAN_POINT ( 'NONE',  ( 10.00000000000000000, 1.224646799147353256E-15, 208.0000000000000284 ) ) ;
#124 = CARTESIAN_POINT ( 'NONE',  ( -13.00000000000000178, 0.000000000000000000, 8.000000000000000000 ) ) ;
#125 = CARTESIAN_POINT ( 'NONE',  ( 13.00000000000000178, 1.592040838891559293E-15, 8.000000000000000000 ) ) ;
#126 = LINE ( 'NONE', #124, #132 ) ;
#127 = DIRECTION ( 'NONE',  ( -0.000000000000000000, -0.000000000000000000, -1.000000000000000000 ) ) ;
#128 = CARTESIAN_POINT ( 'NONE',  ( -10.00000000000000000, 0.000000000000000000, 8.200000000000013500 ) ) ;
#129 = ORIENTED_EDGE ( 'NONE', *, *, #166, .T. ) ;
#130 = DIRECTION ( 'NONE',  ( 1.000000000000000000, 0.000000000000000000, -0.000000000000000000 ) ) ;
#131 = ORIENTED_EDGE ( 'NONE', *, *, #170, .T. ) ;
#132 = VECTOR ( 'NONE', #9, 1000.000000000000000 ) ;
#133 = DIRECTION ( 'NONE',  ( -0.000000000000000000, -0.000000000000000000, -1.000000000000000000 ) ) ;
#134 = ORIENTED_EDGE ( 'NONE', *, *, #92, .T. ) ;
#135 = ADVANCED_FACE ( 'NONE', ( #219 ), #171, .F. ) ;
#136 = APPROVAL_ROLE ( '' ) ;
#137 = AXIS2_PLACEMENT_3D ( 'NONE', #61, #51, #53 ) ;
#138 = DATE_AND_TIME ( #163, #12 ) ;
#139 = CALENDAR_DATE ( 2022, 7, 7 ) ;
#140 = APPROVAL ( #276, 'NEURÈENÝ' ) ;
#141 = VECTOR ( 'NONE', #133, 1000.000000000000000 ) ;
#142 = EDGE_CURVE ( 'NONE', #10, #232, #72, .T. ) ;
#143 = LOCAL_TIME ( 14, 18, 17.00000000000000000, #305 ) ;
#144 = EDGE_CURVE ( 'NONE', #84, #205, #81, .T. ) ;
#145 = DIRECTION ( 'NONE',  ( 0.000000000000000000, 0.000000000000000000, 1.000000000000000000 ) ) ;
#146 = CARTESIAN_POINT ( 'NONE',  ( 0.000000000000000000, 0.000000000000000000, 8.200000000000013500 ) ) ;
#147 = ADVANCED_BREP_SHAPE_REPRESENTATION ( '5dc6', ( #211, #150 ), #48 ) ;
#148 = FACE_OUTER_BOUND ( 'NONE', #185, .T. ) ;
#149 = VERTEX_POINT ( 'NONE', #32 ) ;
#150 = AXIS2_PLACEMENT_3D ( 'NONE', #191, #17, #68 ) ;
#151 = ORIENTED_EDGE ( 'NONE', *, *, #95, .F. ) ;
#152 = EDGE_CURVE ( 'NONE', #232, #10, #252, .T. ) ;
#153 = DIRECTION ( 'NONE',  ( 1.000000000000000000, 0.000000000000000000, 0.000000000000000000 ) ) ;
#154 = FACE_BOUND ( 'NONE', #25, .T. ) ;
#155 = ORIENTED_EDGE ( 'NONE', *, *, #71, .F. ) ;
#156 = CARTESIAN_POINT ( 'NONE',  ( -10.20000000000000107, 1.249139735130300365E-15, 8.000000000000007105 ) ) ;
#157 = EDGE_LOOP ( 'NONE', ( #16, #65 ) ) ;
#158 = ORIENTED_EDGE ( 'NONE', *, *, #217, .T. ) ;
#159 = LINE ( 'NONE', #125, #141 ) ;
#160 = CLOSED_SHELL ( 'NONE', ( #288, #258, #39, #262, #47, #135, #194, #119, #236 ) ) ;
#161 = PERSON_AND_ORGANIZATION ( #75, #287 ) ;
#162 = EDGE_LOOP ( 'NONE', ( #99, #2, #134, #111 ) ) ;
#163 = CALENDAR_DATE ( 2022, 7, 7 ) ;
#164 =( LENGTH_UNIT ( ) NAMED_UNIT ( * ) SI_UNIT ( .MILLI., .METRE. ) );
#165 = CC_DESIGN_APPROVAL ( #140, ( #223 ) ) ;
#166 = EDGE_CURVE ( 'NONE', #149, #10, #159, .T. ) ;
#167 = TOROIDAL_SURFACE ( 'NONE', #213, 10.20000000000000107, 0.2000000000000000111 ) ;
#168 = CIRCLE ( 'NONE', #137, 10.20000000000000107 ) ;
#169 = EDGE_CURVE ( 'NONE', #149, #104, #23, .T. ) ;
#170 = EDGE_CURVE ( 'NONE', #80, #84, #228, .T. ) ;
#171 = PLANE ( 'NONE',  #121 ) ;
#172 = FACE_OUTER_BOUND ( 'NONE', #183, .T. ) ;
#173 = CARTESIAN_POINT ( 'NONE',  ( 0.000000000000000000, 0.000000000000000000, 0.000000000000000000 ) ) ;
#174 = DIRECTION ( 'NONE',  ( 1.000000000000000000, 0.000000000000000000, -0.000000000000000000 ) ) ;
#175 = CC_DESIGN_APPROVAL ( #285, ( #49 ) ) ;
#176 = CARTESIAN_POINT ( 'NONE',  ( 0.000000000000000000, 0.000000000000000000, 8.200000000000013500 ) ) ;
#177 = DIRECTION ( 'NONE',  ( 1.000000000000000000, 0.000000000000000000, -0.000000000000000000 ) ) ;
#178 = CIRCLE ( 'NONE', #259, 10.00000000000000000 ) ;
#179 = ORIENTED_EDGE ( 'NONE', *, *, #166, .F. ) ;
#180 = CARTESIAN_POINT ( 'NONE',  ( -13.00000000000000178, 0.000000000000000000, 0.000000000000000000 ) ) ;
#181 = PLANE ( 'NONE',  #218 ) ;
#182 = PRODUCT ( '5dc6', '5dc6', '', ( #190 ) ) ;
#183 = EDGE_LOOP ( 'NONE', ( #247, #129, #36, #300 ) ) ;
#184 = LINE ( 'NONE', #123, #306 ) ;
#185 = EDGE_LOOP ( 'NONE', ( #204, #158, #209, #202 ) ) ;
#186 = APPLICATION_PROTOCOL_DEFINITION ( 'international standard', 'config_control_design', 1994, #195 ) ;
#187 = CC_DESIGN_PERSON_AND_ORGANIZATION_ASSIGNMENT ( #192, #231, ( #49 ) ) ;
#188 = EDGE_LOOP ( 'NONE', ( #179, #273, #108, #296 ) ) ;
#189 = AXIS2_PLACEMENT_3D ( 'NONE', #98, #26, #245 ) ;
#190 = MECHANICAL_CONTEXT ( 'NONE', #195, 'mechanical' ) ;
#191 = CARTESIAN_POINT ( 'NONE',  ( 0.000000000000000000, 0.000000000000000000, 0.000000000000000000 ) ) ;
#192 = PERSON_AND_ORGANIZATION ( #75, #287 ) ;
#193 = COORDINATED_UNIVERSAL_TIME_OFFSET ( 1, 0, .AHEAD. ) ;
#194 = ADVANCED_FACE ( 'NONE', ( #207 ), #210, .T. ) ;
#195 = APPLICATION_CONTEXT ( 'configuration controlled 3d designs of mechanical parts and assemblies' ) ;
#196 = LOCAL_TIME ( 14, 18, 17.00000000000000000, #283 ) ;
#197 = CC_DESIGN_PERSON_AND_ORGANIZATION_ASSIGNMENT ( #304, #91, ( #49 ) ) ;
#198 = AXIS2_PLACEMENT_3D ( 'NONE', #146, #295, #31 ) ;
#199 = DIRECTION ( 'NONE',  ( 1.000000000000000000, 0.000000000000000000, 0.000000000000000000 ) ) ;
#200 = DIRECTION ( 'NONE',  ( -0.000000000000000000, -0.000000000000000000, -1.000000000000000000 ) ) ;
#201 = DIRECTION ( 'NONE',  ( -1.000000000000000000, 0.000000000000000000, 0.000000000000000000 ) ) ;
#202 = ORIENTED_EDGE ( 'NONE', *, *, #170, .F. ) ;
#203 = CARTESIAN_POINT ( 'NONE',  ( 10.00000000000000000, 1.224646799147353256E-15, 208.0000000000000284 ) ) ;
#204 = ORIENTED_EDGE ( 'NONE', *, *, #24, .F. ) ;
#205 = VERTEX_POINT ( 'NONE', #156 ) ;
#206 = CC_DESIGN_PERSON_AND_ORGANIZATION_ASSIGNMENT ( #303, #212, ( #182 ) ) ;
#207 = FACE_OUTER_BOUND ( 'NONE', #265, .T. ) ;
#208 = VERTEX_POINT ( 'NONE', #6 ) ;
#209 = ORIENTED_EDGE ( 'NONE', *, *, #289, .T. ) ;
#210 = CYLINDRICAL_SURFACE ( 'NONE', #189, 10.00000000000000000 ) ;
#211 = MANIFOLD_SOLID_BREP ( 'Zaoblit1', #160 ) ;
#212 = PERSON_AND_ORGANIZATION_ROLE ( 'design_owner' ) ;
#213 = AXIS2_PLACEMENT_3D ( 'NONE', #176, #268, #8 ) ;
#214 = EDGE_CURVE ( 'NONE', #104, #149, #69, .T. ) ;
#215 =( NAMED_UNIT ( * ) PLANE_ANGLE_UNIT ( ) SI_UNIT ( $, .RADIAN. ) );
#216 = DATE_AND_TIME ( #118, #297 ) ;
#217 = EDGE_CURVE ( 'NONE', #242, #253, #184, .T. ) ;
#218 = AXIS2_PLACEMENT_3D ( 'NONE', #122, #222, #174 ) ;
#219 = FACE_OUTER_BOUND ( 'NONE', #299, .T. ) ;
#220 = TOROIDAL_SURFACE ( 'NONE', #88, 10.20000000000000107, 0.2000000000000000111 ) ;
#221 = CARTESIAN_POINT ( 'NONE',  ( 0.000000000000000000, 0.000000000000000000, 8.200000000000013500 ) ) ;
#222 = DIRECTION ( 'NONE',  ( 0.000000000000000000, 0.000000000000000000, 1.000000000000000000 ) ) ;
#223 = PRODUCT_DEFINITION ( 'NEZNÁMÝ', '', #49, #230 ) ;
#224 = CARTESIAN_POINT ( 'NONE',  ( -10.00000000000000000, 0.000000000000000000, 208.0000000000000284 ) ) ;
#225 = FACE_OUTER_BOUND ( 'NONE', #87, .T. ) ;
#226 = CARTESIAN_POINT ( 'NONE',  ( -13.00000000000000178, 0.000000000000000000, 8.000000000000000000 ) ) ;
#227 = ORIENTED_EDGE ( 'NONE', *, *, #71, .T. ) ;
#228 = LINE ( 'NONE', #224, #3 ) ;
#229 = DIRECTION ( 'NONE',  ( 0.000000000000000000, 0.000000000000000000, 1.000000000000000000 ) ) ;
#230 = DESIGN_CONTEXT ( 'detailed design', #282, 'design' ) ;
#231 = PERSON_AND_ORGANIZATION_ROLE ( 'design_supplier' ) ;
#232 = VERTEX_POINT ( 'NONE', #180 ) ;
#233 = APPROVAL_DATE_TIME ( #67, #140 ) ;
#234 = PERSON_AND_ORGANIZATION_ROLE ( 'creator' ) ;
#235 = COORDINATED_UNIVERSAL_TIME_OFFSET ( 1, 0, .AHEAD. ) ;
#236 = ADVANCED_FACE ( 'NONE', ( #290 ), #220, .F. ) ;
#237 = AXIS2_PLACEMENT_3D ( 'NONE', #269, #200, #5 ) ;
#238 = SECURITY_CLASSIFICATION ( '', '', #18 ) ;
#239 = AXIS2_PLACEMENT_3D ( 'NONE', #57, #60, #153 ) ;
#240 = DIRECTION ( 'NONE',  ( 0.000000000000000000, 0.000000000000000000, 1.000000000000000000 ) ) ;
#241 = CYLINDRICAL_SURFACE ( 'NONE', #109, 10.00000000000000000 ) ;
#242 = VERTEX_POINT ( 'NONE', #203 ) ;
#243 = CIRCLE ( 'NONE', #239, 10.00000000000000000 ) ;
#244 = CARTESIAN_POINT ( 'NONE',  ( 0.000000000000000000, 0.000000000000000000, 208.0000000000000284 ) ) ;
#245 = DIRECTION ( 'NONE',  ( -1.000000000000000000, 0.000000000000000000, 0.000000000000000000 ) ) ;
#246 = DIRECTION ( 'NONE',  ( 0.000000000000000000, -1.000000000000000000, 0.000000000000000000 ) ) ;
#247 = ORIENTED_EDGE ( 'NONE', *, *, #169, .F. ) ;
#248 = DIRECTION ( 'NONE',  ( 0.000000000000000000, 0.000000000000000000, 1.000000000000000000 ) ) ;
#249 = EDGE_LOOP ( 'NONE', ( #151, #270, #155, #255 ) ) ;
#250 = ORIENTED_EDGE ( 'NONE', *, *, #142, .F. ) ;
#251 = DIRECTION ( 'NONE',  ( 1.000000000000000000, 0.000000000000000000, 0.000000000000000000 ) ) ;
#252 = CIRCLE ( 'NONE', #100, 13.00000000000000178 ) ;
#253 = VERTEX_POINT ( 'NONE', #50 ) ;
#254 = APPROVAL_ROLE ( '' ) ;
#255 = ORIENTED_EDGE ( 'NONE', *, *, #92, .F. ) ;
#256 = PRODUCT_RELATED_PRODUCT_CATEGORY ( 'detail', '', ( #182 ) ) ;
#257 = APPLICATION_PROTOCOL_DEFINITION ( 'international standard', 'config_control_design', 1994, #282 ) ;
#258 = ADVANCED_FACE ( 'NONE', ( #148 ), #241, .T. ) ;
#259 = AXIS2_PLACEMENT_3D ( 'NONE', #244, #229, #264 ) ;
#260 = DIRECTION ( 'NONE',  ( -1.000000000000000000, 1.224646799147353207E-16, 0.000000000000000000 ) ) ;
#261 = FACE_OUTER_BOUND ( 'NONE', #157, .T. ) ;
#262 = ADVANCED_FACE ( 'NONE', ( #292 ), #274, .T. ) ;
#263 = DIRECTION ( 'NONE',  ( 1.000000000000000000, 0.000000000000000000, 0.000000000000000000 ) ) ;
#264 = DIRECTION ( 'NONE',  ( 1.000000000000000000, 0.000000000000000000, 0.000000000000000000 ) ) ;
#265 = EDGE_LOOP ( 'NONE', ( #62, #54, #131, #278 ) ) ;
#266 = CC_DESIGN_SECURITY_CLASSIFICATION ( #238, ( #49 ) ) ;
#267 = AXIS2_PLACEMENT_3D ( 'NONE', #33, #240, #177 ) ;
#268 = DIRECTION ( 'NONE',  ( 0.000000000000000000, 0.000000000000000000, 1.000000000000000000 ) ) ;
#269 = CARTESIAN_POINT ( 'NONE',  ( 0.000000000000000000, 0.000000000000000000, 8.000000000000000000 ) ) ;
#270 = ORIENTED_EDGE ( 'NONE', *, *, #144, .T. ) ;
#271 = DIRECTION ( 'NONE',  ( -1.000000000000000000, 0.000000000000000000, 0.000000000000000000 ) ) ;
#272 = CARTESIAN_POINT ( 'NONE',  ( 13.00000000000000178, 1.592040838891559293E-15, 0.000000000000000000 ) ) ;
#273 = ORIENTED_EDGE ( 'NONE', *, *, #214, .F. ) ;
#274 = CYLINDRICAL_SURFACE ( 'NONE', #28, 13.00000000000000178 ) ;
#275 = ORIENTED_EDGE ( 'NONE', *, *, #14, .T. ) ;
#276 = APPROVAL_STATUS ( 'not_yet_approved' ) ;
#277 = AXIS2_PLACEMENT_3D ( 'NONE', #86, #294, #260 ) ;
#278 = ORIENTED_EDGE ( 'NONE', *, *, #95, .T. ) ;
#279 = APPROVAL ( #117, 'NEURÈENÝ' ) ;
#280 = PERSON_AND_ORGANIZATION ( #75, #287 ) ;
#281 = APPROVAL_DATE_TIME ( #307, #279 ) ;
#282 = APPLICATION_CONTEXT ( 'configuration controlled 3d designs of mechanical parts and assemblies' ) ;
#283 = COORDINATED_UNIVERSAL_TIME_OFFSET ( 1, 0, .AHEAD. ) ;
#284 = APPROVAL_PERSON_ORGANIZATION ( #15, #285, #136 ) ;
#285 = APPROVAL ( #114, 'NEURÈENÝ' ) ;
#286 = PERSON_AND_ORGANIZATION ( #75, #287 ) ;
#287 = ORGANIZATION ( 'NEURÈENÝ', 'NEURÈENÝ', '' ) ;
#288 = ADVANCED_FACE ( 'NONE', ( #63 ), #167, .F. ) ;
#289 = EDGE_CURVE ( 'NONE', #253, #84, #243, .T. ) ;
#290 = FACE_OUTER_BOUND ( 'NONE', #162, .T. ) ;
#291 = DIRECTION ( 'NONE',  ( -0.000000000000000000, -0.000000000000000000, -1.000000000000000000 ) ) ;
#292 = FACE_OUTER_BOUND ( 'NONE', #188, .T. ) ;
#293 = DIRECTION ( 'NONE',  ( 0.000000000000000000, 0.000000000000000000, 1.000000000000000000 ) ) ;
#294 = DIRECTION ( 'NONE',  ( 1.224646799147353207E-16, 1.000000000000000000, -0.000000000000000000 ) ) ;
#295 = DIRECTION ( 'NONE',  ( 0.000000000000000000, 0.000000000000000000, 1.000000000000000000 ) ) ;
#296 = ORIENTED_EDGE ( 'NONE', *, *, #152, .T. ) ;
#297 = LOCAL_TIME ( 14, 18, 17.00000000000000000, #193 ) ;
#298 = AXIS2_PLACEMENT_3D ( 'NONE', #173, #73, #13 ) ;
#299 = EDGE_LOOP ( 'NONE', ( #59, #250 ) ) ;
#300 = ORIENTED_EDGE ( 'NONE', *, *, #115, .F. ) ;
#301 = DIRECTION ( 'NONE',  ( 0.000000000000000000, 0.000000000000000000, 1.000000000000000000 ) ) ;
#302 = AXIS2_PLACEMENT_3D ( 'NONE', #74, #293, #83 ) ;
#303 = PERSON_AND_ORGANIZATION ( #75, #287 ) ;
#304 = PERSON_AND_ORGANIZATION ( #75, #287 ) ;
#305 = COORDINATED_UNIVERSAL_TIME_OFFSET ( 1, 0, .AHEAD. ) ;
#306 = VECTOR ( 'NONE', #1, 1000.000000000000000 ) ;
#307 = DATE_AND_TIME ( #139, #143 ) ;
ENDSEC;
END-ISO-10303-21;
