ISO-10303-21;
HEADER;
FILE_DESCRIPTION (( 'STEP AP203' ),
    '1' );
FILE_NAME ('c3be.STEP',
    '2022-07-07T12:48:05',
    ( '' ),
    ( '' ),
    'SwSTEP 2.0',
    'SolidWorks 2019',
    '' );
FILE_SCHEMA (( 'CONFIG_CONTROL_DESIGN' ));
ENDSEC;

DATA;
#1 = APPROVAL_STATUS ( 'not_yet_approved' ) ;
#2 = APPROVAL ( #1, 'NEURÈENÝ' ) ;
#3 = APPLICATION_CONTEXT ( 'configuration controlled 3d designs of mechanical parts and assemblies' ) ;
#4 = CIRCLE ( 'NONE', #299, 0.2000000000000000944 ) ;
#5 = PRODUCT_DEFINITION_SHAPE ( 'NONE', 'NONE',  #277 ) ;
#6 = MECHANICAL_CONTEXT ( 'NONE', #3, 'mechanical' ) ;
#7 = CIRCLE ( 'NONE', #23, 2.449999999999999734 ) ;
#8 = CARTESIAN_POINT ( 'NONE',  ( 0.000000000000000000, 0.000000000000000000, 203.0000000000000000 ) ) ;
#9 = CYLINDRICAL_SURFACE ( 'NONE', #260, 4.000000000000000000 ) ;
#10 = PLANE ( 'NONE',  #293 ) ;
#11 = AXIS2_PLACEMENT_3D ( 'NONE', #184, #119, #231 ) ;
#12 = ORIENTED_EDGE ( 'NONE', *, *, #137, .F. ) ;
#13 = DIRECTION ( 'NONE',  ( 0.000000000000000000, -1.000000000000000000, 0.000000000000000000 ) ) ;
#14 = EDGE_CURVE ( 'NONE', #154, #186, #80, .T. ) ;
#15 = DIRECTION ( 'NONE',  ( -0.000000000000000000, -0.000000000000000000, -1.000000000000000000 ) ) ;
#16 = CARTESIAN_POINT ( 'NONE',  ( 0.000000000000000000, 0.000000000000000000, 0.000000000000000000 ) ) ;
#17 = FACE_OUTER_BOUND ( 'NONE', #116, .T. ) ;
#18 = CALENDAR_DATE ( 2022, 7, 7 ) ;
#19 = DIRECTION ( 'NONE',  ( 1.000000000000000000, 0.000000000000000000, 0.000000000000000000 ) ) ;
#20 = CALENDAR_DATE ( 2022, 7, 7 ) ;
#21 = EDGE_LOOP ( 'NONE', ( #129, #225, #161, #279 ) ) ;
#22 = CALENDAR_DATE ( 2022, 7, 7 ) ;
#23 = AXIS2_PLACEMENT_3D ( 'NONE', #163, #136, #115 ) ;
#24 = EDGE_CURVE ( 'NONE', #175, #238, #4, .T. ) ;
#25 = CARTESIAN_POINT ( 'NONE',  ( 0.000000000000000000, 0.000000000000000000, 3.200000000000008171 ) ) ;
#26 = CIRCLE ( 'NONE', #150, 2.449999999999999734 ) ;
#27 = APPLICATION_PROTOCOL_DEFINITION ( 'international standard', 'config_control_design', 1994, #173 ) ;
#28 = FACE_OUTER_BOUND ( 'NONE', #193, .T. ) ;
#29 = FACE_BOUND ( 'NONE', #177, .T. ) ;
#30 = LINE ( 'NONE', #289, #48 ) ;
#31 = UNCERTAINTY_MEASURE_WITH_UNIT (LENGTH_MEASURE( 1.000000000000000082E-05 ), #127, 'distance_accuracy_value', 'NONE');
#32 = ORIENTED_EDGE ( 'NONE', *, *, #110, .T. ) ;
#33 = AXIS2_PLACEMENT_3D ( 'NONE', #90, #43, #185 ) ;
#34 = CC_DESIGN_APPROVAL ( #264, ( #58 ) ) ;
#35 = EDGE_CURVE ( 'NONE', #186, #36, #30, .T. ) ;
#36 = VERTEX_POINT ( 'NONE', #221 ) ;
#37 = EDGE_LOOP ( 'NONE', ( #211, #281, #86, #290 ) ) ;
#38 = CARTESIAN_POINT ( 'NONE',  ( -2.449999999999999734, 3.000384657911015370E-16, 3.200000000000008171 ) ) ;
#39 = CC_DESIGN_PERSON_AND_ORGANIZATION_ASSIGNMENT ( #220, #241, ( #180 ) ) ;
#40 = AXIS2_PLACEMENT_3D ( 'NONE', #267, #60, #157 ) ;
#41 = LOCAL_TIME ( 14, 48, 5.000000000000000000, #96 ) ;
#42 = DIRECTION ( 'NONE',  ( 1.000000000000000000, 0.000000000000000000, 0.000000000000000000 ) ) ;
#43 = DIRECTION ( 'NONE',  ( 0.000000000000000000, 0.000000000000000000, 1.000000000000000000 ) ) ;
#44 = VERTEX_POINT ( 'NONE', #272 ) ;
#45 = DIRECTION ( 'NONE',  ( 0.000000000000000000, 0.000000000000000000, 1.000000000000000000 ) ) ;
#46 = EDGE_LOOP ( 'NONE', ( #73, #32 ) ) ;
#47 = CALENDAR_DATE ( 2022, 7, 7 ) ;
#48 = VECTOR ( 'NONE', #128, 1000.000000000000000 ) ;
#49 = APPROVAL_DATE_TIME ( #121, #288 ) ;
#50 = VERTEX_POINT ( 'NONE', #269 ) ;
#51 = SECURITY_CLASSIFICATION_LEVEL ( 'unclassified' ) ;
#52 = EDGE_CURVE ( 'NONE', #159, #139, #222, .T. ) ;
#53 = AXIS2_PLACEMENT_3D ( 'NONE', #131, #82, #203 ) ;
#54 = DIRECTION ( 'NONE',  ( 0.000000000000000000, 0.000000000000000000, 1.000000000000000000 ) ) ;
#55 = DIRECTION ( 'NONE',  ( -0.000000000000000000, -0.000000000000000000, -1.000000000000000000 ) ) ;
#56 = EDGE_CURVE ( 'NONE', #154, #44, #248, .T. ) ;
#57 = CARTESIAN_POINT ( 'NONE',  ( 0.000000000000000000, 0.000000000000000000, 203.0000000000000000 ) ) ;
#58 = PRODUCT_DEFINITION_FORMATION_WITH_SPECIFIED_SOURCE ( 'LIBOVOLNÝ', '', #180, .NOT_KNOWN. ) ;
#59 = DIRECTION ( 'NONE',  ( 1.000000000000000000, 0.000000000000000000, -0.000000000000000000 ) ) ;
#60 = DIRECTION ( 'NONE',  ( 0.000000000000000000, 0.000000000000000000, 1.000000000000000000 ) ) ;
#61 = DIRECTION ( 'NONE',  ( -0.000000000000000000, -0.000000000000000000, -1.000000000000000000 ) ) ;
#62 = CC_DESIGN_DATE_AND_TIME_ASSIGNMENT ( #147, #283, ( #100 ) ) ;
#63 = ORIENTED_EDGE ( 'NONE', *, *, #52, .T. ) ;
#64 = CIRCLE ( 'NONE', #282, 0.2000000000000000944 ) ;
#65 = CARTESIAN_POINT ( 'NONE',  ( -2.250000000000000000, 0.000000000000000000, 203.0000000000000000 ) ) ;
#66 = CARTESIAN_POINT ( 'NONE',  ( 0.000000000000000000, 0.000000000000000000, 0.000000000000000000 ) ) ;
#67 = DIRECTION ( 'NONE',  ( 1.000000000000000000, 0.000000000000000000, 0.000000000000000000 ) ) ;
#68 = DIRECTION ( 'NONE',  ( 0.000000000000000000, 0.000000000000000000, 1.000000000000000000 ) ) ;
#69 = CARTESIAN_POINT ( 'NONE',  ( 0.000000000000000000, 0.000000000000000000, 3.200000000000008171 ) ) ;
#70 = EDGE_CURVE ( 'NONE', #107, #175, #227, .T. ) ;
#71 = DATE_AND_TIME ( #20, #160 ) ;
#72 = AXIS2_PLACEMENT_3D ( 'NONE', #76, #54, #239 ) ;
#73 = ORIENTED_EDGE ( 'NONE', *, *, #14, .T. ) ;
#74 = PERSON ( 'NEURÈENÝ', 'NEURÈENÝ', 'NEURÈENÝ', ('NEURÈENÝ'), ('NEURÈENÝ'), ('NEURÈENÝ') ) ;
#75 = APPLICATION_PROTOCOL_DEFINITION ( 'international standard', 'config_control_design', 1994, #3 ) ;
#76 = CARTESIAN_POINT ( 'NONE',  ( 0.000000000000000000, 0.000000000000000000, 3.200000000000008171 ) ) ;
#77 = CARTESIAN_POINT ( 'NONE',  ( 0.000000000000000000, 0.000000000000000000, 3.000000000000000000 ) ) ;
#78 = APPROVAL_STATUS ( 'not_yet_approved' ) ;
#79 = DIRECTION ( 'NONE',  ( -1.000000000000000000, 0.000000000000000000, 0.000000000000000000 ) ) ;
#80 = CIRCLE ( 'NONE', #53, 4.000000000000000000 ) ;
#81 = CC_DESIGN_SECURITY_CLASSIFICATION ( #100, ( #58 ) ) ;
#82 = DIRECTION ( 'NONE',  ( 0.000000000000000000, 0.000000000000000000, 1.000000000000000000 ) ) ;
#83 = ADVANCED_FACE ( 'NONE', ( #88 ), #10, .T. ) ;
#84 = ORIENTED_EDGE ( 'NONE', *, *, #178, .F. ) ;
#85 = DESIGN_CONTEXT ( 'detailed design', #173, 'design' ) ;
#86 = ORIENTED_EDGE ( 'NONE', *, *, #56, .T. ) ;
#87 = AXIS2_PLACEMENT_3D ( 'NONE', #253, #113, #251 ) ;
#88 = FACE_OUTER_BOUND ( 'NONE', #200, .T. ) ;
#89 = ADVANCED_FACE ( 'NONE', ( #28 ), #9, .T. ) ;
#90 = CARTESIAN_POINT ( 'NONE',  ( 0.000000000000000000, 0.000000000000000000, 3.000000000000000000 ) ) ;
#91 = CARTESIAN_POINT ( 'NONE',  ( -2.250000000000000000, 0.000000000000000000, 3.200000000000008171 ) ) ;
#92 = AXIS2_PLACEMENT_3D ( 'NONE', #244, #207, #19 ) ;
#93 = TOROIDAL_SURFACE ( 'NONE', #11, 2.449999999999999734, 0.2000000000000000111 ) ;
#94 = CARTESIAN_POINT ( 'NONE',  ( 0.000000000000000000, 0.000000000000000000, 203.0000000000000000 ) ) ;
#95 = EDGE_CURVE ( 'NONE', #159, #107, #190, .T. ) ;
#96 = COORDINATED_UNIVERSAL_TIME_OFFSET ( 1, 0, .AHEAD. ) ;
#97 = EDGE_LOOP ( 'NONE', ( #235, #291, #63, #179 ) ) ;
#98 = PERSON_AND_ORGANIZATION ( #74, #192 ) ;
#99 = EDGE_CURVE ( 'NONE', #44, #36, #212, .T. ) ;
#100 = SECURITY_CLASSIFICATION ( '', '', #51 ) ;
#101 = AXIS2_PLACEMENT_3D ( 'NONE', #172, #265, #124 ) ;
#102 = FACE_OUTER_BOUND ( 'NONE', #97, .T. ) ;
#103 = CARTESIAN_POINT ( 'NONE',  ( 0.000000000000000000, 0.000000000000000000, 3.000000000000000000 ) ) ;
#104 = CC_DESIGN_PERSON_AND_ORGANIZATION_ASSIGNMENT ( #213, #189, ( #277 ) ) ;
#105 = ORIENTED_EDGE ( 'NONE', *, *, #133, .T. ) ;
#106 = AXIS2_PLACEMENT_3D ( 'NONE', #16, #45, #42 ) ;
#107 = VERTEX_POINT ( 'NONE', #233 ) ;
#108 = DIRECTION ( 'NONE',  ( 0.000000000000000000, 0.000000000000000000, -1.000000000000000000 ) ) ;
#109 = ORIENTED_EDGE ( 'NONE', *, *, #188, .F. ) ;
#110 = EDGE_CURVE ( 'NONE', #186, #154, #130, .T. ) ;
#111 = AXIS2_PLACEMENT_3D ( 'NONE', #273, #300, #206 ) ;
#112 = CARTESIAN_POINT ( 'NONE',  ( -2.250000000000000000, 0.000000000000000000, 203.0000000000000000 ) ) ;
#113 = DIRECTION ( 'NONE',  ( -0.000000000000000000, -0.000000000000000000, -1.000000000000000000 ) ) ;
#114 = ADVANCED_FACE ( 'NONE', ( #134 ), #208, .T. ) ;
#115 = DIRECTION ( 'NONE',  ( 1.000000000000000000, 0.000000000000000000, 0.000000000000000000 ) ) ;
#116 = EDGE_LOOP ( 'NONE', ( #302, #202 ) ) ;
#117 = SHAPE_DEFINITION_REPRESENTATION ( #5, #146 ) ;
#118 = APPROVAL_PERSON_ORGANIZATION ( #303, #264, #187 ) ;
#119 = DIRECTION ( 'NONE',  ( 0.000000000000000000, 0.000000000000000000, 1.000000000000000000 ) ) ;
#120 = ORIENTED_EDGE ( 'NONE', *, *, #56, .F. ) ;
#121 = DATE_AND_TIME ( #22, #224 ) ;
#122 = COORDINATED_UNIVERSAL_TIME_OFFSET ( 1, 0, .AHEAD. ) ;
#123 = DIRECTION ( 'NONE',  ( -0.000000000000000000, -0.000000000000000000, -1.000000000000000000 ) ) ;
#124 = DIRECTION ( 'NONE',  ( 1.000000000000000000, 0.000000000000000000, 0.000000000000000000 ) ) ;
#125 = CARTESIAN_POINT ( 'NONE',  ( 2.250000000000000000, 2.755455298081544285E-16, 203.0000000000000000 ) ) ;
#126 = PRODUCT_RELATED_PRODUCT_CATEGORY ( 'detail', '', ( #180 ) ) ;
#127 =( LENGTH_UNIT ( ) NAMED_UNIT ( * ) SI_UNIT ( .MILLI., .METRE. ) );
#128 = DIRECTION ( 'NONE',  ( -0.000000000000000000, -0.000000000000000000, -1.000000000000000000 ) ) ;
#129 = ORIENTED_EDGE ( 'NONE', *, *, #268, .F. ) ;
#130 = CIRCLE ( 'NONE', #33, 4.000000000000000000 ) ;
#131 = CARTESIAN_POINT ( 'NONE',  ( 0.000000000000000000, 0.000000000000000000, 3.000000000000000000 ) ) ;
#132 = DIRECTION ( 'NONE',  ( -0.000000000000000000, -0.000000000000000000, -1.000000000000000000 ) ) ;
#133 = EDGE_CURVE ( 'NONE', #36, #44, #229, .T. ) ;
#134 = FACE_OUTER_BOUND ( 'NONE', #246, .T. ) ;
#135 = CIRCLE ( 'NONE', #72, 2.250000000000000000 ) ;
#136 = DIRECTION ( 'NONE',  ( -0.000000000000000000, -0.000000000000000000, -1.000000000000000000 ) ) ;
#137 = EDGE_CURVE ( 'NONE', #50, #238, #7, .T. ) ;
#138 = DIRECTION ( 'NONE',  ( 1.224646799147353207E-16, 1.000000000000000000, -0.000000000000000000 ) ) ;
#139 = VERTEX_POINT ( 'NONE', #91 ) ;
#140 = DATE_TIME_ROLE ( 'creation_date' ) ;
#141 = CARTESIAN_POINT ( 'NONE',  ( 4.000000000000000000, 4.898587196589412829E-16, 3.000000000000000000 ) ) ;
#142 = PERSON_AND_ORGANIZATION_ROLE ( 'creator' ) ;
#143 = AXIS2_PLACEMENT_3D ( 'NONE', #8, #123, #153 ) ;
#144 = DATE_AND_TIME ( #47, #301 ) ;
#145 = ADVANCED_FACE ( 'NONE', ( #230 ), #93, .F. ) ;
#146 = ADVANCED_BREP_SHAPE_REPRESENTATION ( 'c3be', ( #249, #101 ), #306 ) ;
#147 = DATE_AND_TIME ( #232, #266 ) ;
#148 = ORIENTED_EDGE ( 'NONE', *, *, #110, .F. ) ;
#149 = APPROVAL_DATE_TIME ( #194, #2 ) ;
#150 = AXIS2_PLACEMENT_3D ( 'NONE', #278, #55, #240 ) ;
#151 = DIRECTION ( 'NONE',  ( 0.000000000000000000, 0.000000000000000000, 1.000000000000000000 ) ) ;
#152 = CARTESIAN_POINT ( 'NONE',  ( 2.449999999999999734, 0.000000000000000000, 3.000000000000004441 ) ) ;
#153 = DIRECTION ( 'NONE',  ( -1.000000000000000000, 0.000000000000000000, 0.000000000000000000 ) ) ;
#154 = VERTEX_POINT ( 'NONE', #298 ) ;
#155 = ADVANCED_FACE ( 'NONE', ( #274 ), #275, .T. ) ;
#156 =( NAMED_UNIT ( * ) PLANE_ANGLE_UNIT ( ) SI_UNIT ( $, .RADIAN. ) );
#157 = DIRECTION ( 'NONE',  ( 1.000000000000000000, 0.000000000000000000, 0.000000000000000000 ) ) ;
#158 = ORIENTED_EDGE ( 'NONE', *, *, #205, .T. ) ;
#159 = VERTEX_POINT ( 'NONE', #112 ) ;
#160 = LOCAL_TIME ( 14, 48, 5.000000000000000000, #304 ) ;
#161 = ORIENTED_EDGE ( 'NONE', *, *, #205, .F. ) ;
#162 = PLANE ( 'NONE',  #276 ) ;
#163 = CARTESIAN_POINT ( 'NONE',  ( 0.000000000000000000, 0.000000000000000000, 3.000000000000000000 ) ) ;
#164 = DIRECTION ( 'NONE',  ( 1.000000000000000000, 0.000000000000000000, 0.000000000000000000 ) ) ;
#165 = DIRECTION ( 'NONE',  ( 0.000000000000000000, 0.000000000000000000, 1.000000000000000000 ) ) ;
#166 = ORIENTED_EDGE ( 'NONE', *, *, #70, .T. ) ;
#167 = COORDINATED_UNIVERSAL_TIME_OFFSET ( 1, 0, .AHEAD. ) ;
#168 = AXIS2_PLACEMENT_3D ( 'NONE', #94, #228, #164 ) ;
#169 = ADVANCED_FACE ( 'NONE', ( #17 ), #162, .F. ) ;
#170 = ORIENTED_EDGE ( 'NONE', *, *, #285, .T. ) ;
#171 = APPROVAL_STATUS ( 'not_yet_approved' ) ;
#172 = CARTESIAN_POINT ( 'NONE',  ( 0.000000000000000000, 0.000000000000000000, 0.000000000000000000 ) ) ;
#173 = APPLICATION_CONTEXT ( 'configuration controlled 3d designs of mechanical parts and assemblies' ) ;
#174 = APPROVAL_PERSON_ORGANIZATION ( #307, #2, #234 ) ;
#175 = VERTEX_POINT ( 'NONE', #250 ) ;
#176 = DIRECTION ( 'NONE',  ( 1.000000000000000000, 0.000000000000000000, -0.000000000000000000 ) ) ;
#177 = EDGE_LOOP ( 'NONE', ( #158, #259 ) ) ;
#178 = EDGE_CURVE ( 'NONE', #139, #50, #64, .T. ) ;
#179 = ORIENTED_EDGE ( 'NONE', *, *, #268, .T. ) ;
#180 = PRODUCT ( 'c3be', 'c3be', '', ( #6 ) ) ;
#181 = CIRCLE ( 'NONE', #219, 2.250000000000000000 ) ;
#182 = DIRECTION ( 'NONE',  ( 0.000000000000000000, 0.000000000000000000, 1.000000000000000000 ) ) ;
#183 = CC_DESIGN_PERSON_AND_ORGANIZATION_ASSIGNMENT ( #236, #210, ( #58 ) ) ;
#184 = CARTESIAN_POINT ( 'NONE',  ( 0.000000000000000000, 0.000000000000000000, 3.200000000000008171 ) ) ;
#185 = DIRECTION ( 'NONE',  ( 1.000000000000000000, 0.000000000000000000, 0.000000000000000000 ) ) ;
#186 = VERTEX_POINT ( 'NONE', #141 ) ;
#187 = APPROVAL_ROLE ( '' ) ;
#188 = EDGE_CURVE ( 'NONE', #107, #159, #256, .T. ) ;
#189 = PERSON_AND_ORGANIZATION_ROLE ( 'creator' ) ;
#190 = CIRCLE ( 'NONE', #40, 2.250000000000000000 ) ;
#191 = APPROVAL_ROLE ( '' ) ;
#192 = ORGANIZATION ( 'NEURÈENÝ', 'NEURÈENÝ', '' ) ;
#193 = EDGE_LOOP ( 'NONE', ( #148, #270, #105, #120 ) ) ;
#194 = DATE_AND_TIME ( #18, #41 ) ;
#195 =( NAMED_UNIT ( * ) SI_UNIT ( $, .STERADIAN. ) SOLID_ANGLE_UNIT ( ) );
#196 = ADVANCED_FACE ( 'NONE', ( #296 ), #271, .F. ) ;
#197 = DIRECTION ( 'NONE',  ( -0.000000000000000000, -0.000000000000000000, -1.000000000000000000 ) ) ;
#198 = VECTOR ( 'NONE', #132, 1000.000000000000000 ) ;
#199 = APPROVAL_PERSON_ORGANIZATION ( #287, #288, #191 ) ;
#200 = EDGE_LOOP ( 'NONE', ( #242, #247 ) ) ;
#201 = EDGE_LOOP ( 'NONE', ( #84, #305, #254, #12 ) ) ;
#202 = ORIENTED_EDGE ( 'NONE', *, *, #133, .F. ) ;
#203 = DIRECTION ( 'NONE',  ( 1.000000000000000000, 0.000000000000000000, 0.000000000000000000 ) ) ;
#204 = AXIS2_PLACEMENT_3D ( 'NONE', #77, #151, #59 ) ;
#205 = EDGE_CURVE ( 'NONE', #238, #50, #26, .T. ) ;
#206 = DIRECTION ( 'NONE',  ( -1.000000000000000000, 0.000000000000000000, 0.000000000000000000 ) ) ;
#207 = DIRECTION ( 'NONE',  ( 0.000000000000000000, 0.000000000000000000, 1.000000000000000000 ) ) ;
#208 = CYLINDRICAL_SURFACE ( 'NONE', #87, 2.250000000000000000 ) ;
#209 = DIRECTION ( 'NONE',  ( 1.000000000000000000, 0.000000000000000000, -0.000000000000000000 ) ) ;
#210 = PERSON_AND_ORGANIZATION_ROLE ( 'design_supplier' ) ;
#211 = ORIENTED_EDGE ( 'NONE', *, *, #35, .F. ) ;
#212 = CIRCLE ( 'NONE', #92, 4.000000000000000000 ) ;
#213 = PERSON_AND_ORGANIZATION ( #74, #192 ) ;
#214 = CC_DESIGN_APPROVAL ( #2, ( #100 ) ) ;
#215 = ADVANCED_FACE ( 'NONE', ( #29, #263 ), #286, .T. ) ;
#216 = APPROVAL_DATE_TIME ( #144, #264 ) ;
#217 = CYLINDRICAL_SURFACE ( 'NONE', #143, 2.250000000000000000 ) ;
#218 = VECTOR ( 'NONE', #61, 1000.000000000000000 ) ;
#219 = AXIS2_PLACEMENT_3D ( 'NONE', #25, #243, #261 ) ;
#220 = PERSON_AND_ORGANIZATION ( #74, #192 ) ;
#221 = CARTESIAN_POINT ( 'NONE',  ( 4.000000000000000000, 4.898587196589412829E-16, 0.000000000000000000 ) ) ;
#222 = LINE ( 'NONE', #65, #218 ) ;
#223 = CC_DESIGN_DATE_AND_TIME_ASSIGNMENT ( #71, #140, ( #277 ) ) ;
#224 = LOCAL_TIME ( 14, 48, 5.000000000000000000, #257 ) ;
#225 = ORIENTED_EDGE ( 'NONE', *, *, #178, .T. ) ;
#226 = CARTESIAN_POINT ( 'NONE',  ( 2.449999999999999734, 0.000000000000000000, 3.200000000000008171 ) ) ;
#227 = LINE ( 'NONE', #125, #255 ) ;
#228 = DIRECTION ( 'NONE',  ( 0.000000000000000000, 0.000000000000000000, 1.000000000000000000 ) ) ;
#229 = CIRCLE ( 'NONE', #106, 4.000000000000000000 ) ;
#230 = FACE_OUTER_BOUND ( 'NONE', #21, .T. ) ;
#231 = DIRECTION ( 'NONE',  ( 1.000000000000000000, 0.000000000000000000, 0.000000000000000000 ) ) ;
#232 = CALENDAR_DATE ( 2022, 7, 7 ) ;
#233 = CARTESIAN_POINT ( 'NONE',  ( 2.250000000000000000, 2.755455298081544285E-16, 203.0000000000000000 ) ) ;
#234 = APPROVAL_ROLE ( '' ) ;
#235 = ORIENTED_EDGE ( 'NONE', *, *, #70, .F. ) ;
#236 = PERSON_AND_ORGANIZATION ( #74, #192 ) ;
#237 = CC_DESIGN_PERSON_AND_ORGANIZATION_ASSIGNMENT ( #258, #142, ( #58 ) ) ;
#238 = VERTEX_POINT ( 'NONE', #152 ) ;
#239 = DIRECTION ( 'NONE',  ( 1.000000000000000000, 0.000000000000000000, 0.000000000000000000 ) ) ;
#240 = DIRECTION ( 'NONE',  ( 1.000000000000000000, 0.000000000000000000, 0.000000000000000000 ) ) ;
#241 = PERSON_AND_ORGANIZATION_ROLE ( 'design_owner' ) ;
#242 = ORIENTED_EDGE ( 'NONE', *, *, #95, .T. ) ;
#243 = DIRECTION ( 'NONE',  ( 0.000000000000000000, 0.000000000000000000, 1.000000000000000000 ) ) ;
#244 = CARTESIAN_POINT ( 'NONE',  ( 0.000000000000000000, 0.000000000000000000, 0.000000000000000000 ) ) ;
#245 = CC_DESIGN_PERSON_AND_ORGANIZATION_ASSIGNMENT ( #98, #284, ( #100 ) ) ;
#246 = EDGE_LOOP ( 'NONE', ( #109, #166, #170, #292 ) ) ;
#247 = ORIENTED_EDGE ( 'NONE', *, *, #188, .T. ) ;
#248 = LINE ( 'NONE', #295, #198 ) ;
#249 = MANIFOLD_SOLID_BREP ( 'Zaoblit1', #280 ) ;
#250 = CARTESIAN_POINT ( 'NONE',  ( 2.250000000000000000, 2.755455298081544285E-16, 3.200000000000008171 ) ) ;
#251 = DIRECTION ( 'NONE',  ( -1.000000000000000000, 0.000000000000000000, 0.000000000000000000 ) ) ;
#252 = DIRECTION ( 'NONE',  ( -1.000000000000000000, 1.224646799147353207E-16, 0.000000000000000000 ) ) ;
#253 = CARTESIAN_POINT ( 'NONE',  ( 0.000000000000000000, 0.000000000000000000, 203.0000000000000000 ) ) ;
#254 = ORIENTED_EDGE ( 'NONE', *, *, #24, .T. ) ;
#255 = VECTOR ( 'NONE', #15, 1000.000000000000000 ) ;
#256 = CIRCLE ( 'NONE', #168, 2.250000000000000000 ) ;
#257 = COORDINATED_UNIVERSAL_TIME_OFFSET ( 1, 0, .AHEAD. ) ;
#258 = PERSON_AND_ORGANIZATION ( #74, #192 ) ;
#259 = ORIENTED_EDGE ( 'NONE', *, *, #137, .T. ) ;
#260 = AXIS2_PLACEMENT_3D ( 'NONE', #103, #197, #79 ) ;
#261 = DIRECTION ( 'NONE',  ( 1.000000000000000000, 0.000000000000000000, 0.000000000000000000 ) ) ;
#262 = CC_DESIGN_APPROVAL ( #288, ( #277 ) ) ;
#263 = FACE_OUTER_BOUND ( 'NONE', #46, .T. ) ;
#264 = APPROVAL ( #171, 'NEURÈENÝ' ) ;
#265 = DIRECTION ( 'NONE',  ( 0.000000000000000000, 0.000000000000000000, 1.000000000000000000 ) ) ;
#266 = LOCAL_TIME ( 14, 48, 5.000000000000000000, #167 ) ;
#267 = CARTESIAN_POINT ( 'NONE',  ( 0.000000000000000000, 0.000000000000000000, 203.0000000000000000 ) ) ;
#268 = EDGE_CURVE ( 'NONE', #139, #175, #181, .T. ) ;
#269 = CARTESIAN_POINT ( 'NONE',  ( -2.449999999999999734, 3.000384657911015370E-16, 3.000000000000004441 ) ) ;
#270 = ORIENTED_EDGE ( 'NONE', *, *, #35, .T. ) ;
#271 = TOROIDAL_SURFACE ( 'NONE', #294, 2.449999999999999734, 0.2000000000000000111 ) ;
#272 = CARTESIAN_POINT ( 'NONE',  ( -4.000000000000000000, 0.000000000000000000, 0.000000000000000000 ) ) ;
#273 = CARTESIAN_POINT ( 'NONE',  ( 0.000000000000000000, 0.000000000000000000, 3.000000000000000000 ) ) ;
#274 = FACE_OUTER_BOUND ( 'NONE', #37, .T. ) ;
#275 = CYLINDRICAL_SURFACE ( 'NONE', #111, 4.000000000000000000 ) ;
#276 = AXIS2_PLACEMENT_3D ( 'NONE', #66, #68, #209 ) ;
#277 = PRODUCT_DEFINITION ( 'NEZNÁMÝ', '', #58, #85 ) ;
#278 = CARTESIAN_POINT ( 'NONE',  ( 0.000000000000000000, 0.000000000000000000, 3.000000000000000000 ) ) ;
#279 = ORIENTED_EDGE ( 'NONE', *, *, #24, .F. ) ;
#280 = CLOSED_SHELL ( 'NONE', ( #145, #114, #89, #155, #215, #169, #297, #83, #196 ) ) ;
#281 = ORIENTED_EDGE ( 'NONE', *, *, #14, .F. ) ;
#282 = AXIS2_PLACEMENT_3D ( 'NONE', #38, #138, #252 ) ;
#283 = DATE_TIME_ROLE ( 'classification_date' ) ;
#284 = PERSON_AND_ORGANIZATION_ROLE ( 'classification_officer' ) ;
#285 = EDGE_CURVE ( 'NONE', #175, #139, #135, .T. ) ;
#286 = PLANE ( 'NONE',  #204 ) ;
#287 = PERSON_AND_ORGANIZATION ( #74, #192 ) ;
#288 = APPROVAL ( #78, 'NEURÈENÝ' ) ;
#289 = CARTESIAN_POINT ( 'NONE',  ( 4.000000000000000000, 4.898587196589412829E-16, 3.000000000000000000 ) ) ;
#290 = ORIENTED_EDGE ( 'NONE', *, *, #99, .T. ) ;
#291 = ORIENTED_EDGE ( 'NONE', *, *, #95, .F. ) ;
#292 = ORIENTED_EDGE ( 'NONE', *, *, #52, .F. ) ;
#293 = AXIS2_PLACEMENT_3D ( 'NONE', #57, #182, #176 ) ;
#294 = AXIS2_PLACEMENT_3D ( 'NONE', #69, #165, #67 ) ;
#295 = CARTESIAN_POINT ( 'NONE',  ( -4.000000000000000000, 0.000000000000000000, 3.000000000000000000 ) ) ;
#296 = FACE_OUTER_BOUND ( 'NONE', #201, .T. ) ;
#297 = ADVANCED_FACE ( 'NONE', ( #102 ), #217, .T. ) ;
#298 = CARTESIAN_POINT ( 'NONE',  ( -4.000000000000000000, 0.000000000000000000, 3.000000000000000000 ) ) ;
#299 = AXIS2_PLACEMENT_3D ( 'NONE', #226, #13, #108 ) ;
#300 = DIRECTION ( 'NONE',  ( -0.000000000000000000, -0.000000000000000000, -1.000000000000000000 ) ) ;
#301 = LOCAL_TIME ( 14, 48, 5.000000000000000000, #122 ) ;
#302 = ORIENTED_EDGE ( 'NONE', *, *, #99, .F. ) ;
#303 = PERSON_AND_ORGANIZATION ( #74, #192 ) ;
#304 = COORDINATED_UNIVERSAL_TIME_OFFSET ( 1, 0, .AHEAD. ) ;
#305 = ORIENTED_EDGE ( 'NONE', *, *, #285, .F. ) ;
#306 =( GEOMETRIC_REPRESENTATION_CONTEXT ( 3 ) GLOBAL_UNCERTAINTY_ASSIGNED_CONTEXT ( ( #31 ) ) GLOBAL_UNIT_ASSIGNED_CONTEXT ( ( #127, #156, #195 ) ) REPRESENTATION_CONTEXT ( 'NONE', 'WORKASPACE' ) );
#307 = PERSON_AND_ORGANIZATION ( #74, #192 ) ;
ENDSEC;
END-ISO-10303-21;
