ISO-10303-21;
HEADER;
FILE_DESCRIPTION (( 'STEP AP203' ),
    '1' );
FILE_NAME ('cdce.STEP',
    '2022-07-07T12:42:12',
    ( '' ),
    ( '' ),
    'SwSTEP 2.0',
    'SolidWorks 2019',
    '' );
FILE_SCHEMA (( 'CONFIG_CONTROL_DESIGN' ));
ENDSEC;

DATA;
#1 = CC_DESIGN_PERSON_AND_ORGANIZATION_ASSIGNMENT ( #139, #258, ( #203 ) ) ;
#2 = DIRECTION ( 'NONE',  ( -1.000000000000000000, 0.000000000000000000, 0.000000000000000000 ) ) ;
#3 = ORIENTED_EDGE ( 'NONE', *, *, #297, .F. ) ;
#4 = DIRECTION ( 'NONE',  ( -1.000000000000000000, 0.000000000000000000, 0.000000000000000000 ) ) ;
#5 = ORIENTED_EDGE ( 'NONE', *, *, #162, .T. ) ;
#6 = EDGE_CURVE ( 'NONE', #124, #220, #92, .T. ) ;
#7 = DIRECTION ( 'NONE',  ( 1.000000000000000000, 0.000000000000000000, 0.000000000000000000 ) ) ;
#8 = VERTEX_POINT ( 'NONE', #13 ) ;
#9 = DIRECTION ( 'NONE',  ( 0.000000000000000000, 0.000000000000000000, 1.000000000000000000 ) ) ;
#10 = AXIS2_PLACEMENT_3D ( 'NONE', #211, #307, #190 ) ;
#11 = DIRECTION ( 'NONE',  ( 1.000000000000000000, 0.000000000000000000, -0.000000000000000000 ) ) ;
#12 = VERTEX_POINT ( 'NONE', #105 ) ;
#13 = CARTESIAN_POINT ( 'NONE',  ( 3.000000000000000444, 3.673940397442060361E-16, 5.200000000000009948 ) ) ;
#14 = CARTESIAN_POINT ( 'NONE',  ( 0.000000000000000000, 0.000000000000000000, 0.000000000000000000 ) ) ;
#15 = ADVANCED_FACE ( 'NONE', ( #271, #154 ), #107, .T. ) ;
#16 = CARTESIAN_POINT ( 'NONE',  ( 0.000000000000000000, 0.000000000000000000, 205.0000000000000284 ) ) ;
#17 = CIRCLE ( 'NONE', #161, 0.1999999999999996503 ) ;
#18 = FACE_OUTER_BOUND ( 'NONE', #273, .T. ) ;
#19 = AXIS2_PLACEMENT_3D ( 'NONE', #289, #266, #2 ) ;
#20 = DATE_TIME_ROLE ( 'classification_date' ) ;
#21 = APPROVAL_DATE_TIME ( #98, #301 ) ;
#22 = ADVANCED_BREP_SHAPE_REPRESENTATION ( 'cdce', ( #300, #121 ), #272 ) ;
#23 = EDGE_CURVE ( 'NONE', #216, #12, #268, .T. ) ;
#24 = APPROVAL_STATUS ( 'not_yet_approved' ) ;
#25 = APPROVAL_ROLE ( '' ) ;
#26 = DIRECTION ( 'NONE',  ( 0.000000000000000000, 0.000000000000000000, 1.000000000000000000 ) ) ;
#27 = CYLINDRICAL_SURFACE ( 'NONE', #152, 6.000000000000000888 ) ;
#28 = EDGE_LOOP ( 'NONE', ( #239, #35, #234, #79 ) ) ;
#29 = CC_DESIGN_APPROVAL ( #136, ( #296 ) ) ;
#30 = PLANE ( 'NONE',  #250 ) ;
#31 = EDGE_LOOP ( 'NONE', ( #145, #201 ) ) ;
#32 = DIRECTION ( 'NONE',  ( -0.000000000000000000, -0.000000000000000000, -1.000000000000000000 ) ) ;
#33 = ORIENTED_EDGE ( 'NONE', *, *, #46, .T. ) ;
#34 = CARTESIAN_POINT ( 'NONE',  ( 0.000000000000000000, 0.000000000000000000, 205.0000000000000284 ) ) ;
#35 = ORIENTED_EDGE ( 'NONE', *, *, #102, .F. ) ;
#36 = DIRECTION ( 'NONE',  ( 0.000000000000000000, 0.000000000000000000, 1.000000000000000000 ) ) ;
#37 = ORIENTED_EDGE ( 'NONE', *, *, #297, .T. ) ;
#38 = DIRECTION ( 'NONE',  ( 0.000000000000000000, 0.000000000000000000, 1.000000000000000000 ) ) ;
#39 = CARTESIAN_POINT ( 'NONE',  ( 6.000000000000000888, 7.347880794884120722E-16, 5.000000000000000000 ) ) ;
#40 = DIRECTION ( 'NONE',  ( 0.000000000000000000, 0.000000000000000000, 1.000000000000000000 ) ) ;
#41 = ADVANCED_FACE ( 'NONE', ( #172 ), #43, .F. ) ;
#42 = AXIS2_PLACEMENT_3D ( 'NONE', #89, #133, #269 ) ;
#43 = TOROIDAL_SURFACE ( 'NONE', #305, 3.200000000000000622, 0.2000000000000000111 ) ;
#44 = AXIS2_PLACEMENT_3D ( 'NONE', #34, #128, #11 ) ;
#45 = APPLICATION_PROTOCOL_DEFINITION ( 'international standard', 'config_control_design', 1994, #111 ) ;
#46 = EDGE_CURVE ( 'NONE', #12, #216, #173, .T. ) ;
#47 = APPROVAL_STATUS ( 'not_yet_approved' ) ;
#48 = PERSON_AND_ORGANIZATION ( #286, #213 ) ;
#49 = CIRCLE ( 'NONE', #283, 0.2000000000000000944 ) ;
#50 = EDGE_CURVE ( 'NONE', #220, #67, #298, .T. ) ;
#51 = APPROVAL_ROLE ( '' ) ;
#52 = CC_DESIGN_PERSON_AND_ORGANIZATION_ASSIGNMENT ( #183, #99, ( #208 ) ) ;
#53 = PLANE ( 'NONE',  #44 ) ;
#54 = DIRECTION ( 'NONE',  ( -0.000000000000000000, -0.000000000000000000, -1.000000000000000000 ) ) ;
#55 = APPROVAL ( #24, 'NEURÈENÝ' ) ;
#56 = ORIENTED_EDGE ( 'NONE', *, *, #186, .T. ) ;
#57 = CARTESIAN_POINT ( 'NONE',  ( 0.000000000000000000, 0.000000000000000000, 5.000000000000000000 ) ) ;
#58 = VERTEX_POINT ( 'NONE', #197 ) ;
#59 = FACE_OUTER_BOUND ( 'NONE', #122, .T. ) ;
#60 = CLOSED_SHELL ( 'NONE', ( #96, #90, #116, #275, #15, #230, #71, #279, #41 ) ) ;
#61 = ORIENTED_EDGE ( 'NONE', *, *, #46, .F. ) ;
#62 = DIRECTION ( 'NONE',  ( -0.000000000000000000, -0.000000000000000000, -1.000000000000000000 ) ) ;
#63 = EDGE_LOOP ( 'NONE', ( #196, #126, #5, #242 ) ) ;
#64 = ORIENTED_EDGE ( 'NONE', *, *, #23, .F. ) ;
#65 = VECTOR ( 'NONE', #143, 1000.000000000000000 ) ;
#66 = DIRECTION ( 'NONE',  ( -1.000000000000000000, 0.000000000000000000, 0.000000000000000000 ) ) ;
#67 = VERTEX_POINT ( 'NONE', #226 ) ;
#68 = VECTOR ( 'NONE', #219, 1000.000000000000000 ) ;
#69 = CIRCLE ( 'NONE', #185, 6.000000000000000888 ) ;
#70 = PERSON_AND_ORGANIZATION ( #286, #213 ) ;
#71 = ADVANCED_FACE ( 'NONE', ( #112 ), #156, .T. ) ;
#72 = CALENDAR_DATE ( 2022, 7, 7 ) ;
#73 = EDGE_CURVE ( 'NONE', #150, #67, #69, .T. ) ;
#74 = COORDINATED_UNIVERSAL_TIME_OFFSET ( 1, 0, .AHEAD. ) ;
#75 = APPROVAL_PERSON_ORGANIZATION ( #118, #136, #163 ) ;
#76 = DATE_TIME_ROLE ( 'creation_date' ) ;
#77 = CARTESIAN_POINT ( 'NONE',  ( 0.000000000000000000, 0.000000000000000000, 5.000000000000000000 ) ) ;
#78 = FACE_OUTER_BOUND ( 'NONE', #294, .T. ) ;
#79 = ORIENTED_EDGE ( 'NONE', *, *, #106, .F. ) ;
#80 = DIRECTION ( 'NONE',  ( 1.224646799147353207E-16, 1.000000000000000000, -0.000000000000000000 ) ) ;
#81 = CC_DESIGN_APPROVAL ( #301, ( #208 ) ) ;
#82 = CARTESIAN_POINT ( 'NONE',  ( 0.000000000000000000, 0.000000000000000000, 5.000000000000000000 ) ) ;
#83 = CARTESIAN_POINT ( 'NONE',  ( 0.000000000000000000, 0.000000000000000000, 5.000000000000000000 ) ) ;
#84 = EDGE_LOOP ( 'NONE', ( #166, #265 ) ) ;
#85 = DIRECTION ( 'NONE',  ( 0.000000000000000000, 0.000000000000000000, 1.000000000000000000 ) ) ;
#86 = CARTESIAN_POINT ( 'NONE',  ( 0.000000000000000000, 0.000000000000000000, 5.200000000000009948 ) ) ;
#87 = LOCAL_TIME ( 14, 42, 12.00000000000000000, #278 ) ;
#88 = PRODUCT_DEFINITION_SHAPE ( 'NONE', 'NONE',  #251 ) ;
#89 = CARTESIAN_POINT ( 'NONE',  ( 0.000000000000000000, 0.000000000000000000, 205.0000000000000284 ) ) ;
#90 = ADVANCED_FACE ( 'NONE', ( #18 ), #134, .T. ) ;
#91 = CALENDAR_DATE ( 2022, 7, 7 ) ;
#92 = CIRCLE ( 'NONE', #241, 6.000000000000000888 ) ;
#93 = TOROIDAL_SURFACE ( 'NONE', #119, 3.200000000000000622, 0.2000000000000000111 ) ;
#94 = AXIS2_PLACEMENT_3D ( 'NONE', #77, #26, #120 ) ;
#95 = DATE_AND_TIME ( #72, #110 ) ;
#96 = ADVANCED_FACE ( 'NONE', ( #109 ), #93, .F. ) ;
#97 = UNCERTAINTY_MEASURE_WITH_UNIT (LENGTH_MEASURE( 1.000000000000000082E-05 ), #256, 'distance_accuracy_value', 'NONE');
#98 = DATE_AND_TIME ( #306, #252 ) ;
#99 = PERSON_AND_ORGANIZATION_ROLE ( 'design_supplier' ) ;
#100 = CYLINDRICAL_SURFACE ( 'NONE', #19, 6.000000000000000888 ) ;
#101 = CARTESIAN_POINT ( 'NONE',  ( -6.000000000000000888, 0.000000000000000000, 5.000000000000000000 ) ) ;
#102 = EDGE_CURVE ( 'NONE', #8, #58, #113, .T. ) ;
#103 = CARTESIAN_POINT ( 'NONE',  ( -6.000000000000000888, 0.000000000000000000, 0.000000000000000000 ) ) ;
#104 = CARTESIAN_POINT ( 'NONE',  ( -6.000000000000000888, 0.000000000000000000, 5.000000000000000000 ) ) ;
#105 = CARTESIAN_POINT ( 'NONE',  ( 3.000000000000000444, 3.673940397442060361E-16, 205.0000000000000284 ) ) ;
#106 = EDGE_CURVE ( 'NONE', #171, #270, #135, .T. ) ;
#107 = PLANE ( 'NONE',  #144 ) ;
#108 = DIRECTION ( 'NONE',  ( 1.000000000000000000, 0.000000000000000000, 0.000000000000000000 ) ) ;
#109 = FACE_OUTER_BOUND ( 'NONE', #262, .T. ) ;
#110 = LOCAL_TIME ( 14, 42, 12.00000000000000000, #74 ) ;
#111 = APPLICATION_CONTEXT ( 'configuration controlled 3d designs of mechanical parts and assemblies' ) ;
#112 = FACE_OUTER_BOUND ( 'NONE', #292, .T. ) ;
#113 = CIRCLE ( 'NONE', #257, 3.000000000000000444 ) ;
#114 = CIRCLE ( 'NONE', #205, 3.200000000000000622 ) ;
#115 = DIRECTION ( 'NONE',  ( 0.000000000000000000, 0.000000000000000000, 1.000000000000000000 ) ) ;
#116 = ADVANCED_FACE ( 'NONE', ( #149 ), #27, .T. ) ;
#117 =( NAMED_UNIT ( * ) PLANE_ANGLE_UNIT ( ) SI_UNIT ( $, .RADIAN. ) );
#118 = PERSON_AND_ORGANIZATION ( #286, #213 ) ;
#119 = AXIS2_PLACEMENT_3D ( 'NONE', #202, #155, #248 ) ;
#120 = DIRECTION ( 'NONE',  ( 1.000000000000000000, 0.000000000000000000, 0.000000000000000000 ) ) ;
#121 = AXIS2_PLACEMENT_3D ( 'NONE', #206, #115, #138 ) ;
#122 = EDGE_LOOP ( 'NONE', ( #153, #33 ) ) ;
#123 = DIRECTION ( 'NONE',  ( 1.000000000000000000, 0.000000000000000000, -0.000000000000000000 ) ) ;
#124 = VERTEX_POINT ( 'NONE', #101 ) ;
#125 = FACE_OUTER_BOUND ( 'NONE', #237, .T. ) ;
#126 = ORIENTED_EDGE ( 'NONE', *, *, #50, .T. ) ;
#127 = CC_DESIGN_DATE_AND_TIME_ASSIGNMENT ( #95, #76, ( #251 ) ) ;
#128 = DIRECTION ( 'NONE',  ( 0.000000000000000000, 0.000000000000000000, 1.000000000000000000 ) ) ;
#129 = CIRCLE ( 'NONE', #227, 6.000000000000000888 ) ;
#130 = ORIENTED_EDGE ( 'NONE', *, *, #177, .F. ) ;
#131 = DIRECTION ( 'NONE',  ( -0.000000000000000000, -0.000000000000000000, -1.000000000000000000 ) ) ;
#132 = ORIENTED_EDGE ( 'NONE', *, *, #73, .T. ) ;
#133 = DIRECTION ( 'NONE',  ( 0.000000000000000000, 0.000000000000000000, 1.000000000000000000 ) ) ;
#134 = CYLINDRICAL_SURFACE ( 'NONE', #299, 3.000000000000000444 ) ;
#135 = CIRCLE ( 'NONE', #181, 3.200000000000000622 ) ;
#136 = APPROVAL ( #281, 'NEURÈENÝ' ) ;
#137 = APPROVAL_PERSON_ORGANIZATION ( #228, #301, #51 ) ;
#138 = DIRECTION ( 'NONE',  ( 1.000000000000000000, 0.000000000000000000, 0.000000000000000000 ) ) ;
#139 = PERSON_AND_ORGANIZATION ( #286, #213 ) ;
#140 = CIRCLE ( 'NONE', #94, 6.000000000000000888 ) ;
#141 = APPROVAL_DATE_TIME ( #304, #136 ) ;
#142 = EDGE_CURVE ( 'NONE', #8, #270, #17, .T. ) ;
#143 = DIRECTION ( 'NONE',  ( -0.000000000000000000, -0.000000000000000000, -1.000000000000000000 ) ) ;
#144 = AXIS2_PLACEMENT_3D ( 'NONE', #222, #85, #151 ) ;
#145 = ORIENTED_EDGE ( 'NONE', *, *, #6, .T. ) ;
#146 = CARTESIAN_POINT ( 'NONE',  ( -3.000000000000000444, 0.000000000000000000, 205.0000000000000284 ) ) ;
#147 = ORIENTED_EDGE ( 'NONE', *, *, #236, .T. ) ;
#148 = DIRECTION ( 'NONE',  ( -0.000000000000000000, -0.000000000000000000, -1.000000000000000000 ) ) ;
#149 = FACE_OUTER_BOUND ( 'NONE', #63, .T. ) ;
#150 = VERTEX_POINT ( 'NONE', #103 ) ;
#151 = DIRECTION ( 'NONE',  ( 1.000000000000000000, 0.000000000000000000, -0.000000000000000000 ) ) ;
#152 = AXIS2_PLACEMENT_3D ( 'NONE', #82, #32, #4 ) ;
#153 = ORIENTED_EDGE ( 'NONE', *, *, #23, .T. ) ;
#154 = FACE_OUTER_BOUND ( 'NONE', #31, .T. ) ;
#155 = DIRECTION ( 'NONE',  ( 0.000000000000000000, 0.000000000000000000, 1.000000000000000000 ) ) ;
#156 = CYLINDRICAL_SURFACE ( 'NONE', #260, 3.000000000000000444 ) ;
#157 = VECTOR ( 'NONE', #178, 1000.000000000000000 ) ;
#158 = LOCAL_TIME ( 14, 42, 12.00000000000000000, #231 ) ;
#159 = SECURITY_CLASSIFICATION_LEVEL ( 'unclassified' ) ;
#160 = CALENDAR_DATE ( 2022, 7, 7 ) ;
#161 = AXIS2_PLACEMENT_3D ( 'NONE', #212, #261, #215 ) ;
#162 = EDGE_CURVE ( 'NONE', #67, #150, #129, .T. ) ;
#163 = APPROVAL_ROLE ( '' ) ;
#164 = CARTESIAN_POINT ( 'NONE',  ( 0.000000000000000000, 0.000000000000000000, 0.000000000000000000 ) ) ;
#165 = LINE ( 'NONE', #288, #225 ) ;
#166 = ORIENTED_EDGE ( 'NONE', *, *, #177, .T. ) ;
#167 = DIRECTION ( 'NONE',  ( 0.000000000000000000, 0.000000000000000000, 1.000000000000000000 ) ) ;
#168 = APPROVAL_PERSON_ORGANIZATION ( #255, #55, #25 ) ;
#169 = ORIENTED_EDGE ( 'NONE', *, *, #290, .F. ) ;
#170 = DIRECTION ( 'NONE',  ( 1.000000000000000000, 0.000000000000000000, 0.000000000000000000 ) ) ;
#171 = VERTEX_POINT ( 'NONE', #238 ) ;
#172 = FACE_OUTER_BOUND ( 'NONE', #28, .T. ) ;
#173 = CIRCLE ( 'NONE', #42, 3.000000000000000444 ) ;
#174 = ORIENTED_EDGE ( 'NONE', *, *, #162, .F. ) ;
#175 = DIRECTION ( 'NONE',  ( 1.000000000000000000, 0.000000000000000000, 0.000000000000000000 ) ) ;
#176 = DESIGN_CONTEXT ( 'detailed design', #111, 'design' ) ;
#177 = EDGE_CURVE ( 'NONE', #270, #171, #114, .T. ) ;
#178 = DIRECTION ( 'NONE',  ( -0.000000000000000000, -0.000000000000000000, -1.000000000000000000 ) ) ;
#179 = DIRECTION ( 'NONE',  ( -1.000000000000000000, 0.000000000000000000, 0.000000000000000000 ) ) ;
#180 = CC_DESIGN_PERSON_AND_ORGANIZATION_ASSIGNMENT ( #210, #303, ( #251 ) ) ;
#181 = AXIS2_PLACEMENT_3D ( 'NONE', #83, #62, #170 ) ;
#182 = SHAPE_DEFINITION_REPRESENTATION ( #88, #22 ) ;
#183 = PERSON_AND_ORGANIZATION ( #286, #213 ) ;
#184 = APPROVAL_DATE_TIME ( #302, #55 ) ;
#185 = AXIS2_PLACEMENT_3D ( 'NONE', #14, #36, #108 ) ;
#186 = EDGE_CURVE ( 'NONE', #216, #58, #165, .T. ) ;
#187 = APPLICATION_PROTOCOL_DEFINITION ( 'international standard', 'config_control_design', 1994, #254 ) ;
#188 = LINE ( 'NONE', #259, #65 ) ;
#189 = CC_DESIGN_PERSON_AND_ORGANIZATION_ASSIGNMENT ( #48, #209, ( #296 ) ) ;
#190 = DIRECTION ( 'NONE',  ( 1.000000000000000000, 0.000000000000000000, 0.000000000000000000 ) ) ;
#191 = ORIENTED_EDGE ( 'NONE', *, *, #6, .F. ) ;
#192 = CARTESIAN_POINT ( 'NONE',  ( 0.000000000000000000, 0.000000000000000000, 0.000000000000000000 ) ) ;
#193 = ORIENTED_EDGE ( 'NONE', *, *, #290, .T. ) ;
#194 = PRODUCT_RELATED_PRODUCT_CATEGORY ( 'detail', '', ( #203 ) ) ;
#195 = DIRECTION ( 'NONE',  ( 1.000000000000000000, 0.000000000000000000, 0.000000000000000000 ) ) ;
#196 = ORIENTED_EDGE ( 'NONE', *, *, #285, .F. ) ;
#197 = CARTESIAN_POINT ( 'NONE',  ( -3.000000000000000444, 0.000000000000000000, 5.200000000000009948 ) ) ;
#198 = DIRECTION ( 'NONE',  ( 1.000000000000000000, 0.000000000000000000, 0.000000000000000000 ) ) ;
#199 = DIRECTION ( 'NONE',  ( -0.000000000000000000, -0.000000000000000000, -1.000000000000000000 ) ) ;
#200 = CC_DESIGN_SECURITY_CLASSIFICATION ( #296, ( #208 ) ) ;
#201 = ORIENTED_EDGE ( 'NONE', *, *, #285, .T. ) ;
#202 = CARTESIAN_POINT ( 'NONE',  ( 0.000000000000000000, 0.000000000000000000, 5.200000000000009948 ) ) ;
#203 = PRODUCT ( 'cdce', 'cdce', '', ( #253 ) ) ;
#204 = AXIS2_PLACEMENT_3D ( 'NONE', #223, #40, #175 ) ;
#205 = AXIS2_PLACEMENT_3D ( 'NONE', #57, #54, #195 ) ;
#206 = CARTESIAN_POINT ( 'NONE',  ( 0.000000000000000000, 0.000000000000000000, 0.000000000000000000 ) ) ;
#207 =( NAMED_UNIT ( * ) SI_UNIT ( $, .STERADIAN. ) SOLID_ANGLE_UNIT ( ) );
#208 = PRODUCT_DEFINITION_FORMATION_WITH_SPECIFIED_SOURCE ( 'LIBOVOLNÝ', '', #203, .NOT_KNOWN. ) ;
#209 = PERSON_AND_ORGANIZATION_ROLE ( 'classification_officer' ) ;
#210 = PERSON_AND_ORGANIZATION ( #286, #213 ) ;
#211 = CARTESIAN_POINT ( 'NONE',  ( 0.000000000000000000, 0.000000000000000000, 5.200000000000009948 ) ) ;
#212 = CARTESIAN_POINT ( 'NONE',  ( 3.200000000000000622, 0.000000000000000000, 5.200000000000009948 ) ) ;
#213 = ORGANIZATION ( 'NEURÈENÝ', 'NEURÈENÝ', '' ) ;
#214 = ORIENTED_EDGE ( 'NONE', *, *, #102, .T. ) ;
#215 = DIRECTION ( 'NONE',  ( 0.000000000000000000, 0.000000000000000000, -1.000000000000000000 ) ) ;
#216 = VERTEX_POINT ( 'NONE', #146 ) ;
#217 = CARTESIAN_POINT ( 'NONE',  ( 3.200000000000000622, 0.000000000000000000, 5.000000000000005329 ) ) ;
#218 = CARTESIAN_POINT ( 'NONE',  ( 0.000000000000000000, 0.000000000000000000, 5.200000000000009948 ) ) ;
#219 = DIRECTION ( 'NONE',  ( -0.000000000000000000, -0.000000000000000000, -1.000000000000000000 ) ) ;
#220 = VERTEX_POINT ( 'NONE', #235 ) ;
#221 = DIRECTION ( 'NONE',  ( 0.000000000000000000, 0.000000000000000000, 1.000000000000000000 ) ) ;
#222 = CARTESIAN_POINT ( 'NONE',  ( 0.000000000000000000, 0.000000000000000000, 5.000000000000000000 ) ) ;
#223 = CARTESIAN_POINT ( 'NONE',  ( 0.000000000000000000, 0.000000000000000000, 205.0000000000000284 ) ) ;
#224 = EDGE_CURVE ( 'NONE', #58, #171, #49, .T. ) ;
#225 = VECTOR ( 'NONE', #148, 1000.000000000000000 ) ;
#226 = CARTESIAN_POINT ( 'NONE',  ( 6.000000000000000888, 7.347880794884120722E-16, 0.000000000000000000 ) ) ;
#227 = AXIS2_PLACEMENT_3D ( 'NONE', #192, #284, #7 ) ;
#228 = PERSON_AND_ORGANIZATION ( #286, #213 ) ;
#229 = PERSON_AND_ORGANIZATION_ROLE ( 'creator' ) ;
#230 = ADVANCED_FACE ( 'NONE', ( #125 ), #30, .F. ) ;
#231 = COORDINATED_UNIVERSAL_TIME_OFFSET ( 1, 0, .AHEAD. ) ;
#232 = COORDINATED_UNIVERSAL_TIME_OFFSET ( 1, 0, .AHEAD. ) ;
#233 = CARTESIAN_POINT ( 'NONE',  ( -3.200000000000000622, 3.918869757271530953E-16, 5.200000000000009948 ) ) ;
#234 = ORIENTED_EDGE ( 'NONE', *, *, #142, .T. ) ;
#235 = CARTESIAN_POINT ( 'NONE',  ( 6.000000000000000888, 7.347880794884120722E-16, 5.000000000000000000 ) ) ;
#236 = EDGE_CURVE ( 'NONE', #124, #150, #263, .T. ) ;
#237 = EDGE_LOOP ( 'NONE', ( #267, #174 ) ) ;
#238 = CARTESIAN_POINT ( 'NONE',  ( -3.200000000000000622, 3.918869757271530953E-16, 5.000000000000005329 ) ) ;
#239 = ORIENTED_EDGE ( 'NONE', *, *, #224, .F. ) ;
#240 = DIRECTION ( 'NONE',  ( -1.000000000000000000, 1.224646799147353207E-16, 0.000000000000000000 ) ) ;
#241 = AXIS2_PLACEMENT_3D ( 'NONE', #244, #221, #198 ) ;
#242 = ORIENTED_EDGE ( 'NONE', *, *, #236, .F. ) ;
#243 = CC_DESIGN_PERSON_AND_ORGANIZATION_ASSIGNMENT ( #70, #229, ( #208 ) ) ;
#244 = CARTESIAN_POINT ( 'NONE',  ( 0.000000000000000000, 0.000000000000000000, 5.000000000000000000 ) ) ;
#245 = LOCAL_TIME ( 14, 42, 12.00000000000000000, #232 ) ;
#246 = ORIENTED_EDGE ( 'NONE', *, *, #142, .F. ) ;
#247 = DIRECTION ( 'NONE',  ( 1.000000000000000000, 0.000000000000000000, 0.000000000000000000 ) ) ;
#248 = DIRECTION ( 'NONE',  ( 1.000000000000000000, 0.000000000000000000, 0.000000000000000000 ) ) ;
#249 = CARTESIAN_POINT ( 'NONE',  ( 0.000000000000000000, 0.000000000000000000, 205.0000000000000284 ) ) ;
#250 = AXIS2_PLACEMENT_3D ( 'NONE', #164, #167, #123 ) ;
#251 = PRODUCT_DEFINITION ( 'NEZNÁMÝ', '', #208, #176 ) ;
#252 = LOCAL_TIME ( 14, 42, 12.00000000000000000, #280 ) ;
#253 = MECHANICAL_CONTEXT ( 'NONE', #254, 'mechanical' ) ;
#254 = APPLICATION_CONTEXT ( 'configuration controlled 3d designs of mechanical parts and assemblies' ) ;
#255 = PERSON_AND_ORGANIZATION ( #286, #213 ) ;
#256 =( LENGTH_UNIT ( ) NAMED_UNIT ( * ) SI_UNIT ( .MILLI., .METRE. ) );
#257 = AXIS2_PLACEMENT_3D ( 'NONE', #218, #9, #293 ) ;
#258 = PERSON_AND_ORGANIZATION_ROLE ( 'design_owner' ) ;
#259 = CARTESIAN_POINT ( 'NONE',  ( 3.000000000000000444, 3.673940397442060361E-16, 205.0000000000000284 ) ) ;
#260 = AXIS2_PLACEMENT_3D ( 'NONE', #16, #199, #179 ) ;
#261 = DIRECTION ( 'NONE',  ( 0.000000000000000000, -1.000000000000000000, 0.000000000000000000 ) ) ;
#262 = EDGE_LOOP ( 'NONE', ( #169, #295, #130, #246 ) ) ;
#263 = LINE ( 'NONE', #104, #68 ) ;
#264 = CIRCLE ( 'NONE', #10, 3.000000000000000444 ) ;
#265 = ORIENTED_EDGE ( 'NONE', *, *, #106, .T. ) ;
#266 = DIRECTION ( 'NONE',  ( -0.000000000000000000, -0.000000000000000000, -1.000000000000000000 ) ) ;
#267 = ORIENTED_EDGE ( 'NONE', *, *, #73, .F. ) ;
#268 = CIRCLE ( 'NONE', #204, 3.000000000000000444 ) ;
#269 = DIRECTION ( 'NONE',  ( 1.000000000000000000, 0.000000000000000000, 0.000000000000000000 ) ) ;
#270 = VERTEX_POINT ( 'NONE', #217 ) ;
#271 = FACE_BOUND ( 'NONE', #84, .T. ) ;
#272 =( GEOMETRIC_REPRESENTATION_CONTEXT ( 3 ) GLOBAL_UNCERTAINTY_ASSIGNED_CONTEXT ( ( #97 ) ) GLOBAL_UNIT_ASSIGNED_CONTEXT ( ( #256, #117, #207 ) ) REPRESENTATION_CONTEXT ( 'NONE', 'WORKASPACE' ) );
#273 = EDGE_LOOP ( 'NONE', ( #61, #37, #214, #287 ) ) ;
#274 = ORIENTED_EDGE ( 'NONE', *, *, #50, .F. ) ;
#275 = ADVANCED_FACE ( 'NONE', ( #78 ), #100, .T. ) ;
#276 = CC_DESIGN_DATE_AND_TIME_ASSIGNMENT ( #277, #20, ( #296 ) ) ;
#277 = DATE_AND_TIME ( #160, #158 ) ;
#278 = COORDINATED_UNIVERSAL_TIME_OFFSET ( 1, 0, .AHEAD. ) ;
#279 = ADVANCED_FACE ( 'NONE', ( #59 ), #53, .T. ) ;
#280 = COORDINATED_UNIVERSAL_TIME_OFFSET ( 1, 0, .AHEAD. ) ;
#281 = APPROVAL_STATUS ( 'not_yet_approved' ) ;
#282 = CALENDAR_DATE ( 2022, 7, 7 ) ;
#283 = AXIS2_PLACEMENT_3D ( 'NONE', #233, #80, #240 ) ;
#284 = DIRECTION ( 'NONE',  ( 0.000000000000000000, 0.000000000000000000, 1.000000000000000000 ) ) ;
#285 = EDGE_CURVE ( 'NONE', #220, #124, #140, .T. ) ;
#286 = PERSON ( 'NEURÈENÝ', 'NEURÈENÝ', 'NEURÈENÝ', ('NEURÈENÝ'), ('NEURÈENÝ'), ('NEURÈENÝ') ) ;
#287 = ORIENTED_EDGE ( 'NONE', *, *, #186, .F. ) ;
#288 = CARTESIAN_POINT ( 'NONE',  ( -3.000000000000000444, 0.000000000000000000, 205.0000000000000284 ) ) ;
#289 = CARTESIAN_POINT ( 'NONE',  ( 0.000000000000000000, 0.000000000000000000, 5.000000000000000000 ) ) ;
#290 = EDGE_CURVE ( 'NONE', #58, #8, #264, .T. ) ;
#291 = CC_DESIGN_APPROVAL ( #55, ( #251 ) ) ;
#292 = EDGE_LOOP ( 'NONE', ( #3, #64, #56, #193 ) ) ;
#293 = DIRECTION ( 'NONE',  ( 1.000000000000000000, 0.000000000000000000, 0.000000000000000000 ) ) ;
#294 = EDGE_LOOP ( 'NONE', ( #274, #191, #147, #132 ) ) ;
#295 = ORIENTED_EDGE ( 'NONE', *, *, #224, .T. ) ;
#296 = SECURITY_CLASSIFICATION ( '', '', #159 ) ;
#297 = EDGE_CURVE ( 'NONE', #12, #8, #188, .T. ) ;
#298 = LINE ( 'NONE', #39, #157 ) ;
#299 = AXIS2_PLACEMENT_3D ( 'NONE', #249, #131, #66 ) ;
#300 = MANIFOLD_SOLID_BREP ( 'Zaoblit1', #60 ) ;
#301 = APPROVAL ( #47, 'NEURÈENÝ' ) ;
#302 = DATE_AND_TIME ( #282, #87 ) ;
#303 = PERSON_AND_ORGANIZATION_ROLE ( 'creator' ) ;
#304 = DATE_AND_TIME ( #91, #245 ) ;
#305 = AXIS2_PLACEMENT_3D ( 'NONE', #86, #38, #247 ) ;
#306 = CALENDAR_DATE ( 2022, 7, 7 ) ;
#307 = DIRECTION ( 'NONE',  ( 0.000000000000000000, 0.000000000000000000, 1.000000000000000000 ) ) ;
ENDSEC;
END-ISO-10303-21;
