ISO-10303-21;
HEADER;
FILE_DESCRIPTION (( 'STEP AP203' ),
    '1' );
FILE_NAME ('426e.STEP',
    '2022-07-07T12:31:27',
    ( '' ),
    ( '' ),
    'SwSTEP 2.0',
    'SolidWorks 2019',
    '' );
FILE_SCHEMA (( 'CONFIG_CONTROL_DESIGN' ));
ENDSEC;

DATA;
#1 = DIRECTION ( 'NONE',  ( 0.000000000000000000, 0.000000000000000000, 1.000000000000000000 ) ) ;
#2 = CC_DESIGN_APPROVAL ( #16, ( #110 ) ) ;
#3 = CARTESIAN_POINT ( 'NONE',  ( 0.000000000000000000, 0.000000000000000000, 5.200000000000009948 ) ) ;
#4 =( LENGTH_UNIT ( ) NAMED_UNIT ( * ) SI_UNIT ( .MILLI., .METRE. ) );
#5 = CARTESIAN_POINT ( 'NONE',  ( -7.000000000000000000, 0.000000000000000000, 5.000000000000000000 ) ) ;
#6 = CC_DESIGN_APPROVAL ( #36, ( #145 ) ) ;
#7 = CARTESIAN_POINT ( 'NONE',  ( 4.250000000000000000, 5.204748896376250699E-16, 165.0000000000000000 ) ) ;
#8 = EDGE_CURVE ( 'NONE', #175, #262, #77, .T. ) ;
#9 = EDGE_LOOP ( 'NONE', ( #207, #286, #162, #211 ) ) ;
#10 = ORIENTED_EDGE ( 'NONE', *, *, #125, .T. ) ;
#11 = AXIS2_PLACEMENT_3D ( 'NONE', #304, #65, #261 ) ;
#12 = EDGE_CURVE ( 'NONE', #71, #87, #115, .T. ) ;
#13 = CALENDAR_DATE ( 2022, 7, 7 ) ;
#14 = EDGE_LOOP ( 'NONE', ( #158, #232, #67, #10 ) ) ;
#15 = CC_DESIGN_APPROVAL ( #230, ( #305 ) ) ;
#16 = APPROVAL ( #164, 'NEURÈENÝ' ) ;
#17 = COORDINATED_UNIVERSAL_TIME_OFFSET ( 1, 0, .AHEAD. ) ;
#18 = DIRECTION ( 'NONE',  ( 0.000000000000000000, 0.000000000000000000, 1.000000000000000000 ) ) ;
#19 = APPROVAL_STATUS ( 'not_yet_approved' ) ;
#20 = DIRECTION ( 'NONE',  ( 0.000000000000000000, 0.000000000000000000, -1.000000000000000000 ) ) ;
#21 = PERSON ( 'NEURÈENÝ', 'NEURÈENÝ', 'NEURÈENÝ', ('NEURÈENÝ'), ('NEURÈENÝ'), ('NEURÈENÝ') ) ;
#22 = DATE_TIME_ROLE ( 'creation_date' ) ;
#23 = CARTESIAN_POINT ( 'NONE',  ( 0.000000000000000000, 0.000000000000000000, 165.0000000000000000 ) ) ;
#24 = EDGE_CURVE ( 'NONE', #298, #278, #96, .T. ) ;
#25 = AXIS2_PLACEMENT_3D ( 'NONE', #198, #288, #271 ) ;
#26 = PERSON_AND_ORGANIZATION_ROLE ( 'design_owner' ) ;
#27 = CARTESIAN_POINT ( 'NONE',  ( 0.000000000000000000, 0.000000000000000000, 0.000000000000000000 ) ) ;
#28 = PERSON_AND_ORGANIZATION ( #21, #233 ) ;
#29 = CARTESIAN_POINT ( 'NONE',  ( 7.000000000000000000, 8.572527594031473190E-16, 5.000000000000000000 ) ) ;
#30 = ADVANCED_FACE ( 'NONE', ( #185, #161 ), #213, .T. ) ;
#31 = CARTESIAN_POINT ( 'NONE',  ( 0.000000000000000000, 0.000000000000000000, 5.200000000000009948 ) ) ;
#32 = CIRCLE ( 'NONE', #132, 7.000000000000000000 ) ;
#33 = DIRECTION ( 'NONE',  ( 0.000000000000000000, 0.000000000000000000, 1.000000000000000000 ) ) ;
#34 = FACE_OUTER_BOUND ( 'NONE', #156, .T. ) ;
#35 = PLANE ( 'NONE',  #128 ) ;
#36 = APPROVAL ( #114, 'NEURÈENÝ' ) ;
#37 = CIRCLE ( 'NONE', #177, 4.450000000000000178 ) ;
#38 = ORIENTED_EDGE ( 'NONE', *, *, #182, .T. ) ;
#39 = ORIENTED_EDGE ( 'NONE', *, *, #8, .T. ) ;
#40 = EDGE_LOOP ( 'NONE', ( #83, #243, #223, #227 ) ) ;
#41 = CC_DESIGN_PERSON_AND_ORGANIZATION_ASSIGNMENT ( #231, #62, ( #145 ) ) ;
#42 = CARTESIAN_POINT ( 'NONE',  ( -4.250000000000000000, 0.000000000000000000, 165.0000000000000000 ) ) ;
#43 = DIRECTION ( 'NONE',  ( 0.000000000000000000, 0.000000000000000000, 1.000000000000000000 ) ) ;
#44 = CARTESIAN_POINT ( 'NONE',  ( 4.250000000000000000, 5.204748896376250699E-16, 165.0000000000000000 ) ) ;
#45 = MECHANICAL_CONTEXT ( 'NONE', #226, 'mechanical' ) ;
#46 = CARTESIAN_POINT ( 'NONE',  ( 0.000000000000000000, 0.000000000000000000, 5.000000000000000000 ) ) ;
#47 = ADVANCED_FACE ( 'NONE', ( #139 ), #147, .T. ) ;
#48 = ORIENTED_EDGE ( 'NONE', *, *, #250, .F. ) ;
#49 = CIRCLE ( 'NONE', #157, 0.1999999999999996503 ) ;
#50 = COORDINATED_UNIVERSAL_TIME_OFFSET ( 1, 0, .AHEAD. ) ;
#51 = DIRECTION ( 'NONE',  ( 1.000000000000000000, 0.000000000000000000, 0.000000000000000000 ) ) ;
#52 = DIRECTION ( 'NONE',  ( 0.000000000000000000, 0.000000000000000000, 1.000000000000000000 ) ) ;
#53 = FACE_OUTER_BOUND ( 'NONE', #276, .T. ) ;
#54 = AXIS2_PLACEMENT_3D ( 'NONE', #111, #266, #51 ) ;
#55 = CARTESIAN_POINT ( 'NONE',  ( 0.000000000000000000, 0.000000000000000000, 5.000000000000000000 ) ) ;
#56 = DIRECTION ( 'NONE',  ( -1.000000000000000000, 0.000000000000000000, 0.000000000000000000 ) ) ;
#57 = CC_DESIGN_PERSON_AND_ORGANIZATION_ASSIGNMENT ( #135, #26, ( #273 ) ) ;
#58 = FACE_OUTER_BOUND ( 'NONE', #9, .T. ) ;
#59 = LOCAL_TIME ( 14, 31, 26.00000000000000000, #50 ) ;
#60 = AXIS2_PLACEMENT_3D ( 'NONE', #55, #249, #56 ) ;
#61 = ORIENTED_EDGE ( 'NONE', *, *, #24, .T. ) ;
#62 = PERSON_AND_ORGANIZATION_ROLE ( 'creator' ) ;
#63 = CARTESIAN_POINT ( 'NONE',  ( 0.000000000000000000, 0.000000000000000000, 5.000000000000000000 ) ) ;
#64 = EDGE_CURVE ( 'NONE', #298, #175, #234, .T. ) ;
#65 = DIRECTION ( 'NONE',  ( 0.000000000000000000, 0.000000000000000000, 1.000000000000000000 ) ) ;
#66 = TOROIDAL_SURFACE ( 'NONE', #72, 4.450000000000000178, 0.2000000000000000111 ) ;
#67 = ORIENTED_EDGE ( 'NONE', *, *, #186, .T. ) ;
#68 = DATE_AND_TIME ( #283, #100 ) ;
#69 = DIRECTION ( 'NONE',  ( 1.000000000000000000, 0.000000000000000000, 0.000000000000000000 ) ) ;
#70 = COORDINATED_UNIVERSAL_TIME_OFFSET ( 1, 0, .AHEAD. ) ;
#71 = VERTEX_POINT ( 'NONE', #206 ) ;
#72 = AXIS2_PLACEMENT_3D ( 'NONE', #3, #52, #97 ) ;
#73 = FACE_OUTER_BOUND ( 'NONE', #239, .T. ) ;
#74 = CARTESIAN_POINT ( 'NONE',  ( 0.000000000000000000, 0.000000000000000000, 5.000000000000000000 ) ) ;
#75 = DIRECTION ( 'NONE',  ( -1.000000000000000000, 1.224646799147353454E-16, 0.000000000000000000 ) ) ;
#76 = AXIS2_PLACEMENT_3D ( 'NONE', #27, #144, #93 ) ;
#77 = CIRCLE ( 'NONE', #76, 7.000000000000000000 ) ;
#78 = VECTOR ( 'NONE', #142, 1000.000000000000000 ) ;
#79 = EDGE_CURVE ( 'NONE', #172, #228, #179, .T. ) ;
#80 = DIRECTION ( 'NONE',  ( 0.000000000000000000, 0.000000000000000000, 1.000000000000000000 ) ) ;
#81 = EDGE_LOOP ( 'NONE', ( #201, #199 ) ) ;
#82 = EDGE_CURVE ( 'NONE', #172, #105, #169, .T. ) ;
#83 = ORIENTED_EDGE ( 'NONE', *, *, #251, .F. ) ;
#84 = ORIENTED_EDGE ( 'NONE', *, *, #24, .F. ) ;
#85 = CC_DESIGN_DATE_AND_TIME_ASSIGNMENT ( #238, #22, ( #305 ) ) ;
#86 = PERSON_AND_ORGANIZATION ( #21, #233 ) ;
#87 = VERTEX_POINT ( 'NONE', #181 ) ;
#88 = DIRECTION ( 'NONE',  ( 1.000000000000000000, 0.000000000000000000, 0.000000000000000000 ) ) ;
#89 = ADVANCED_BREP_SHAPE_REPRESENTATION ( '426e', ( #176, #291 ), #256 ) ;
#90 = PLANE ( 'NONE',  #257 ) ;
#91 = AXIS2_PLACEMENT_3D ( 'NONE', #74, #80, #246 ) ;
#92 = DATE_AND_TIME ( #13, #280 ) ;
#93 = DIRECTION ( 'NONE',  ( 1.000000000000000000, 0.000000000000000000, 0.000000000000000000 ) ) ;
#94 = ORIENTED_EDGE ( 'NONE', *, *, #12, .F. ) ;
#95 = CARTESIAN_POINT ( 'NONE',  ( -7.000000000000000000, 0.000000000000000000, 0.000000000000000000 ) ) ;
#96 = CIRCLE ( 'NONE', #54, 7.000000000000000000 ) ;
#97 = DIRECTION ( 'NONE',  ( 1.000000000000000000, 0.000000000000000000, 0.000000000000000000 ) ) ;
#98 = LINE ( 'NONE', #7, #265 ) ;
#99 = CARTESIAN_POINT ( 'NONE',  ( -4.250000000000000000, 0.000000000000000000, 165.0000000000000000 ) ) ;
#100 = LOCAL_TIME ( 14, 31, 26.00000000000000000, #70 ) ;
#101 = EDGE_CURVE ( 'NONE', #253, #228, #184, .T. ) ;
#102 = CARTESIAN_POINT ( 'NONE',  ( 0.000000000000000000, 0.000000000000000000, 5.000000000000000000 ) ) ;
#103 = APPLICATION_PROTOCOL_DEFINITION ( 'international standard', 'config_control_design', 1994, #226 ) ;
#104 = CC_DESIGN_PERSON_AND_ORGANIZATION_ASSIGNMENT ( #86, #300, ( #110 ) ) ;
#105 = VERTEX_POINT ( 'NONE', #44 ) ;
#106 = AXIS2_PLACEMENT_3D ( 'NONE', #63, #120, #165 ) ;
#107 = ORIENTED_EDGE ( 'NONE', *, *, #79, .F. ) ;
#108 = EDGE_CURVE ( 'NONE', #253, #87, #225, .T. ) ;
#109 = APPROVAL_ROLE ( '' ) ;
#110 = SECURITY_CLASSIFICATION ( '', '', #208 ) ;
#111 = CARTESIAN_POINT ( 'NONE',  ( 0.000000000000000000, 0.000000000000000000, 5.000000000000000000 ) ) ;
#112 = APPROVAL_DATE_TIME ( #68, #36 ) ;
#113 = DIRECTION ( 'NONE',  ( 0.000000000000000000, 0.000000000000000000, 1.000000000000000000 ) ) ;
#114 = APPROVAL_STATUS ( 'not_yet_approved' ) ;
#115 = CIRCLE ( 'NONE', #106, 4.450000000000000178 ) ;
#116 = DIRECTION ( 'NONE',  ( 0.000000000000000000, -1.000000000000000000, 0.000000000000000000 ) ) ;
#117 = AXIS2_PLACEMENT_3D ( 'NONE', #252, #215, #154 ) ;
#118 = AXIS2_PLACEMENT_3D ( 'NONE', #214, #267, #217 ) ;
#119 = COORDINATED_UNIVERSAL_TIME_OFFSET ( 1, 0, .AHEAD. ) ;
#120 = DIRECTION ( 'NONE',  ( -0.000000000000000000, -0.000000000000000000, -1.000000000000000000 ) ) ;
#121 = CARTESIAN_POINT ( 'NONE',  ( 0.000000000000000000, 0.000000000000000000, 0.000000000000000000 ) ) ;
#122 = FACE_OUTER_BOUND ( 'NONE', #174, .T. ) ;
#123 = AXIS2_PLACEMENT_3D ( 'NONE', #245, #209, #299 ) ;
#124 = PRODUCT_DEFINITION_SHAPE ( 'NONE', 'NONE',  #305 ) ;
#125 = EDGE_CURVE ( 'NONE', #262, #175, #32, .T. ) ;
#126 = DIRECTION ( 'NONE',  ( 1.000000000000000000, 0.000000000000000000, -0.000000000000000000 ) ) ;
#127 = DIRECTION ( 'NONE',  ( 0.000000000000000000, 0.000000000000000000, 1.000000000000000000 ) ) ;
#128 = AXIS2_PLACEMENT_3D ( 'NONE', #121, #127, #219 ) ;
#129 = ORIENTED_EDGE ( 'NONE', *, *, #240, .T. ) ;
#130 = ADVANCED_FACE ( 'NONE', ( #301 ), #90, .T. ) ;
#131 = UNCERTAINTY_MEASURE_WITH_UNIT (LENGTH_MEASURE( 1.000000000000000082E-05 ), #4, 'distance_accuracy_value', 'NONE');
#132 = AXIS2_PLACEMENT_3D ( 'NONE', #284, #113, #69 ) ;
#133 = ORIENTED_EDGE ( 'NONE', *, *, #186, .F. ) ;
#134 = ADVANCED_FACE ( 'NONE', ( #122 ), #197, .T. ) ;
#135 = PERSON_AND_ORGANIZATION ( #21, #233 ) ;
#136 = ORIENTED_EDGE ( 'NONE', *, *, #222, .T. ) ;
#137 = DATE_TIME_ROLE ( 'classification_date' ) ;
#138 = TOROIDAL_SURFACE ( 'NONE', #270, 4.450000000000000178, 0.2000000000000000111 ) ;
#139 = FACE_OUTER_BOUND ( 'NONE', #14, .T. ) ;
#140 = ADVANCED_FACE ( 'NONE', ( #34 ), #289, .T. ) ;
#141 = ORIENTED_EDGE ( 'NONE', *, *, #125, .F. ) ;
#142 = DIRECTION ( 'NONE',  ( -0.000000000000000000, -0.000000000000000000, -1.000000000000000000 ) ) ;
#143 = CARTESIAN_POINT ( 'NONE',  ( 0.000000000000000000, 0.000000000000000000, 0.000000000000000000 ) ) ;
#144 = DIRECTION ( 'NONE',  ( 0.000000000000000000, 0.000000000000000000, 1.000000000000000000 ) ) ;
#145 = PRODUCT_DEFINITION_FORMATION_WITH_SPECIFIED_SOURCE ( 'LIBOVOLNÝ', '', #273, .NOT_KNOWN. ) ;
#146 = CALENDAR_DATE ( 2022, 7, 7 ) ;
#147 = CYLINDRICAL_SURFACE ( 'NONE', #123, 7.000000000000000000 ) ;
#148 = CARTESIAN_POINT ( 'NONE',  ( 7.000000000000000000, 8.572527594031473190E-16, 0.000000000000000000 ) ) ;
#149 = CARTESIAN_POINT ( 'NONE',  ( 7.000000000000000000, 8.572527594031473190E-16, 5.000000000000000000 ) ) ;
#150 = CIRCLE ( 'NONE', #203, 4.250000000000000000 ) ;
#151 = EDGE_CURVE ( 'NONE', #105, #172, #294, .T. ) ;
#152 = DIRECTION ( 'NONE',  ( 1.000000000000000000, 0.000000000000000000, 0.000000000000000000 ) ) ;
#153 = DIRECTION ( 'NONE',  ( -0.000000000000000000, -0.000000000000000000, -1.000000000000000000 ) ) ;
#154 = DIRECTION ( 'NONE',  ( 1.000000000000000000, 0.000000000000000000, 0.000000000000000000 ) ) ;
#155 = AXIS2_PLACEMENT_3D ( 'NONE', #237, #116, #20 ) ;
#156 = EDGE_LOOP ( 'NONE', ( #263, #136, #224, #107 ) ) ;
#157 = AXIS2_PLACEMENT_3D ( 'NONE', #171, #166, #75 ) ;
#158 = ORIENTED_EDGE ( 'NONE', *, *, #64, .F. ) ;
#159 = ORIENTED_EDGE ( 'NONE', *, *, #101, .F. ) ;
#160 = LOCAL_TIME ( 14, 31, 26.00000000000000000, #306 ) ;
#161 = FACE_OUTER_BOUND ( 'NONE', #254, .T. ) ;
#162 = ORIENTED_EDGE ( 'NONE', *, *, #79, .T. ) ;
#163 = ORIENTED_EDGE ( 'NONE', *, *, #12, .T. ) ;
#164 = APPROVAL_STATUS ( 'not_yet_approved' ) ;
#165 = DIRECTION ( 'NONE',  ( 1.000000000000000000, 0.000000000000000000, 0.000000000000000000 ) ) ;
#166 = DIRECTION ( 'NONE',  ( 1.224646799147353207E-16, 1.000000000000000000, -0.000000000000000000 ) ) ;
#167 = LINE ( 'NONE', #5, #302 ) ;
#168 = CARTESIAN_POINT ( 'NONE',  ( 0.000000000000000000, 0.000000000000000000, 5.200000000000009948 ) ) ;
#169 = CIRCLE ( 'NONE', #200, 4.250000000000000000 ) ;
#170 = CARTESIAN_POINT ( 'NONE',  ( 0.000000000000000000, 0.000000000000000000, 165.0000000000000000 ) ) ;
#171 = CARTESIAN_POINT ( 'NONE',  ( -4.450000000000000178, 5.449678256205721784E-16, 5.200000000000009948 ) ) ;
#172 = VERTEX_POINT ( 'NONE', #99 ) ;
#173 = CC_DESIGN_SECURITY_CLASSIFICATION ( #110, ( #145 ) ) ;
#174 = EDGE_LOOP ( 'NONE', ( #84, #279, #39, #133 ) ) ;
#175 = VERTEX_POINT ( 'NONE', #148 ) ;
#176 = MANIFOLD_SOLID_BREP ( 'Zaoblit1', #220 ) ;
#177 = AXIS2_PLACEMENT_3D ( 'NONE', #102, #153, #248 ) ;
#178 = CC_DESIGN_DATE_AND_TIME_ASSIGNMENT ( #277, #137, ( #110 ) ) ;
#179 = LINE ( 'NONE', #42, #296 ) ;
#180 = SHAPE_DEFINITION_REPRESENTATION ( #124, #89 ) ;
#181 = CARTESIAN_POINT ( 'NONE',  ( 4.450000000000000178, 0.000000000000000000, 5.000000000000005329 ) ) ;
#182 = EDGE_CURVE ( 'NONE', #87, #71, #37, .T. ) ;
#183 = CALENDAR_DATE ( 2022, 7, 7 ) ;
#184 = CIRCLE ( 'NONE', #11, 4.250000000000000000 ) ;
#185 = FACE_BOUND ( 'NONE', #282, .T. ) ;
#186 = EDGE_CURVE ( 'NONE', #278, #262, #167, .T. ) ;
#187 = APPROVAL_DATE_TIME ( #92, #230 ) ;
#188 = DIRECTION ( 'NONE',  ( -0.000000000000000000, -0.000000000000000000, -1.000000000000000000 ) ) ;
#189 = ADVANCED_FACE ( 'NONE', ( #292 ), #138, .F. ) ;
#190 = ORIENTED_EDGE ( 'NONE', *, *, #108, .T. ) ;
#191 = CYLINDRICAL_SURFACE ( 'NONE', #118, 4.250000000000000000 ) ;
#192 = APPROVAL_PERSON_ORGANIZATION ( #28, #16, #264 ) ;
#193 = CARTESIAN_POINT ( 'NONE',  ( -7.000000000000000000, 0.000000000000000000, 5.000000000000000000 ) ) ;
#194 = ADVANCED_FACE ( 'NONE', ( #53 ), #35, .F. ) ;
#195 = DIRECTION ( 'NONE',  ( 0.000000000000000000, 0.000000000000000000, 1.000000000000000000 ) ) ;
#196 = DESIGN_CONTEXT ( 'detailed design', #216, 'design' ) ;
#197 = CYLINDRICAL_SURFACE ( 'NONE', #60, 7.000000000000000000 ) ;
#198 = CARTESIAN_POINT ( 'NONE',  ( 0.000000000000000000, 0.000000000000000000, 165.0000000000000000 ) ) ;
#199 = ORIENTED_EDGE ( 'NONE', *, *, #151, .T. ) ;
#200 = AXIS2_PLACEMENT_3D ( 'NONE', #23, #18, #88 ) ;
#201 = ORIENTED_EDGE ( 'NONE', *, *, #82, .T. ) ;
#202 =( NAMED_UNIT ( * ) SI_UNIT ( $, .STERADIAN. ) SOLID_ANGLE_UNIT ( ) );
#203 = AXIS2_PLACEMENT_3D ( 'NONE', #31, #33, #269 ) ;
#204 = CC_DESIGN_PERSON_AND_ORGANIZATION_ASSIGNMENT ( #212, #281, ( #305 ) ) ;
#205 = PERSON_AND_ORGANIZATION ( #21, #233 ) ;
#206 = CARTESIAN_POINT ( 'NONE',  ( -4.450000000000000178, 5.449678256205721784E-16, 5.000000000000005329 ) ) ;
#207 = ORIENTED_EDGE ( 'NONE', *, *, #222, .F. ) ;
#208 = SECURITY_CLASSIFICATION_LEVEL ( 'unclassified' ) ;
#209 = DIRECTION ( 'NONE',  ( -0.000000000000000000, -0.000000000000000000, -1.000000000000000000 ) ) ;
#210 = PERSON_AND_ORGANIZATION ( #21, #233 ) ;
#211 = ORIENTED_EDGE ( 'NONE', *, *, #251, .T. ) ;
#212 = PERSON_AND_ORGANIZATION ( #21, #233 ) ;
#213 = PLANE ( 'NONE',  #221 ) ;
#214 = CARTESIAN_POINT ( 'NONE',  ( 0.000000000000000000, 0.000000000000000000, 165.0000000000000000 ) ) ;
#215 = DIRECTION ( 'NONE',  ( 0.000000000000000000, 0.000000000000000000, 1.000000000000000000 ) ) ;
#216 = APPLICATION_CONTEXT ( 'configuration controlled 3d designs of mechanical parts and assemblies' ) ;
#217 = DIRECTION ( 'NONE',  ( -1.000000000000000000, 0.000000000000000000, 0.000000000000000000 ) ) ;
#218 = DIRECTION ( 'NONE',  ( -0.000000000000000000, -0.000000000000000000, -1.000000000000000000 ) ) ;
#219 = DIRECTION ( 'NONE',  ( 1.000000000000000000, 0.000000000000000000, -0.000000000000000000 ) ) ;
#220 = CLOSED_SHELL ( 'NONE', ( #189, #140, #134, #47, #30, #194, #255, #130, #268 ) ) ;
#221 = AXIS2_PLACEMENT_3D ( 'NONE', #46, #259, #307 ) ;
#222 = EDGE_CURVE ( 'NONE', #105, #253, #98, .T. ) ;
#223 = ORIENTED_EDGE ( 'NONE', *, *, #182, .F. ) ;
#224 = ORIENTED_EDGE ( 'NONE', *, *, #101, .T. ) ;
#225 = CIRCLE ( 'NONE', #155, 0.1999999999999996503 ) ;
#226 = APPLICATION_CONTEXT ( 'configuration controlled 3d designs of mechanical parts and assemblies' ) ;
#227 = ORIENTED_EDGE ( 'NONE', *, *, #108, .F. ) ;
#228 = VERTEX_POINT ( 'NONE', #293 ) ;
#229 = CC_DESIGN_PERSON_AND_ORGANIZATION_ASSIGNMENT ( #258, #297, ( #145 ) ) ;
#230 = APPROVAL ( #19, 'NEURÈENÝ' ) ;
#231 = PERSON_AND_ORGANIZATION ( #21, #233 ) ;
#232 = ORIENTED_EDGE ( 'NONE', *, *, #240, .F. ) ;
#233 = ORGANIZATION ( 'NEURÈENÝ', 'NEURÈENÝ', '' ) ;
#234 = LINE ( 'NONE', #29, #78 ) ;
#235 = APPROVAL_DATE_TIME ( #244, #16 ) ;
#236 = APPLICATION_PROTOCOL_DEFINITION ( 'international standard', 'config_control_design', 1994, #216 ) ;
#237 = CARTESIAN_POINT ( 'NONE',  ( 4.450000000000000178, 0.000000000000000000, 5.200000000000009948 ) ) ;
#238 = DATE_AND_TIME ( #285, #160 ) ;
#239 = EDGE_LOOP ( 'NONE', ( #48, #159, #190, #94 ) ) ;
#240 = EDGE_CURVE ( 'NONE', #278, #298, #260, .T. ) ;
#241 = DIRECTION ( 'NONE',  ( 1.000000000000000000, 0.000000000000000000, 0.000000000000000000 ) ) ;
#242 = APPROVAL_PERSON_ORGANIZATION ( #210, #230, #303 ) ;
#243 = ORIENTED_EDGE ( 'NONE', *, *, #250, .T. ) ;
#244 = DATE_AND_TIME ( #146, #59 ) ;
#245 = CARTESIAN_POINT ( 'NONE',  ( 0.000000000000000000, 0.000000000000000000, 5.000000000000000000 ) ) ;
#246 = DIRECTION ( 'NONE',  ( 1.000000000000000000, 0.000000000000000000, 0.000000000000000000 ) ) ;
#247 = APPROVAL_PERSON_ORGANIZATION ( #205, #36, #109 ) ;
#248 = DIRECTION ( 'NONE',  ( 1.000000000000000000, 0.000000000000000000, 0.000000000000000000 ) ) ;
#249 = DIRECTION ( 'NONE',  ( -0.000000000000000000, -0.000000000000000000, -1.000000000000000000 ) ) ;
#250 = EDGE_CURVE ( 'NONE', #228, #71, #49, .T. ) ;
#251 = EDGE_CURVE ( 'NONE', #228, #253, #150, .T. ) ;
#252 = CARTESIAN_POINT ( 'NONE',  ( 0.000000000000000000, 0.000000000000000000, 165.0000000000000000 ) ) ;
#253 = VERTEX_POINT ( 'NONE', #272 ) ;
#254 = EDGE_LOOP ( 'NONE', ( #129, #61 ) ) ;
#255 = ADVANCED_FACE ( 'NONE', ( #58 ), #191, .T. ) ;
#256 =( GEOMETRIC_REPRESENTATION_CONTEXT ( 3 ) GLOBAL_UNCERTAINTY_ASSIGNED_CONTEXT ( ( #131 ) ) GLOBAL_UNIT_ASSIGNED_CONTEXT ( ( #4, #275, #202 ) ) REPRESENTATION_CONTEXT ( 'NONE', 'WORKASPACE' ) );
#257 = AXIS2_PLACEMENT_3D ( 'NONE', #170, #1, #126 ) ;
#258 = PERSON_AND_ORGANIZATION ( #21, #233 ) ;
#259 = DIRECTION ( 'NONE',  ( 0.000000000000000000, 0.000000000000000000, 1.000000000000000000 ) ) ;
#260 = CIRCLE ( 'NONE', #91, 7.000000000000000000 ) ;
#261 = DIRECTION ( 'NONE',  ( 1.000000000000000000, 0.000000000000000000, 0.000000000000000000 ) ) ;
#262 = VERTEX_POINT ( 'NONE', #95 ) ;
#263 = ORIENTED_EDGE ( 'NONE', *, *, #151, .F. ) ;
#264 = APPROVAL_ROLE ( '' ) ;
#265 = VECTOR ( 'NONE', #290, 1000.000000000000000 ) ;
#266 = DIRECTION ( 'NONE',  ( 0.000000000000000000, 0.000000000000000000, 1.000000000000000000 ) ) ;
#267 = DIRECTION ( 'NONE',  ( -0.000000000000000000, -0.000000000000000000, -1.000000000000000000 ) ) ;
#268 = ADVANCED_FACE ( 'NONE', ( #73 ), #66, .F. ) ;
#269 = DIRECTION ( 'NONE',  ( 1.000000000000000000, 0.000000000000000000, 0.000000000000000000 ) ) ;
#270 = AXIS2_PLACEMENT_3D ( 'NONE', #168, #195, #152 ) ;
#271 = DIRECTION ( 'NONE',  ( -1.000000000000000000, 0.000000000000000000, 0.000000000000000000 ) ) ;
#272 = CARTESIAN_POINT ( 'NONE',  ( 4.250000000000000000, 5.204748896376250699E-16, 5.200000000000009948 ) ) ;
#273 = PRODUCT ( '426e', '426e', '', ( #45 ) ) ;
#274 = PRODUCT_RELATED_PRODUCT_CATEGORY ( 'detail', '', ( #273 ) ) ;
#275 =( NAMED_UNIT ( * ) PLANE_ANGLE_UNIT ( ) SI_UNIT ( $, .RADIAN. ) );
#276 = EDGE_LOOP ( 'NONE', ( #141, #295 ) ) ;
#277 = DATE_AND_TIME ( #183, #287 ) ;
#278 = VERTEX_POINT ( 'NONE', #193 ) ;
#279 = ORIENTED_EDGE ( 'NONE', *, *, #64, .T. ) ;
#280 = LOCAL_TIME ( 14, 31, 26.00000000000000000, #119 ) ;
#281 = PERSON_AND_ORGANIZATION_ROLE ( 'creator' ) ;
#282 = EDGE_LOOP ( 'NONE', ( #38, #163 ) ) ;
#283 = CALENDAR_DATE ( 2022, 7, 7 ) ;
#284 = CARTESIAN_POINT ( 'NONE',  ( 0.000000000000000000, 0.000000000000000000, 0.000000000000000000 ) ) ;
#285 = CALENDAR_DATE ( 2022, 7, 7 ) ;
#286 = ORIENTED_EDGE ( 'NONE', *, *, #82, .F. ) ;
#287 = LOCAL_TIME ( 14, 31, 26.00000000000000000, #17 ) ;
#288 = DIRECTION ( 'NONE',  ( -0.000000000000000000, -0.000000000000000000, -1.000000000000000000 ) ) ;
#289 = CYLINDRICAL_SURFACE ( 'NONE', #25, 4.250000000000000000 ) ;
#290 = DIRECTION ( 'NONE',  ( -0.000000000000000000, -0.000000000000000000, -1.000000000000000000 ) ) ;
#291 = AXIS2_PLACEMENT_3D ( 'NONE', #143, #43, #241 ) ;
#292 = FACE_OUTER_BOUND ( 'NONE', #40, .T. ) ;
#293 = CARTESIAN_POINT ( 'NONE',  ( -4.250000000000000000, 0.000000000000000000, 5.200000000000009948 ) ) ;
#294 = CIRCLE ( 'NONE', #117, 4.250000000000000000 ) ;
#295 = ORIENTED_EDGE ( 'NONE', *, *, #8, .F. ) ;
#296 = VECTOR ( 'NONE', #188, 1000.000000000000000 ) ;
#297 = PERSON_AND_ORGANIZATION_ROLE ( 'design_supplier' ) ;
#298 = VERTEX_POINT ( 'NONE', #149 ) ;
#299 = DIRECTION ( 'NONE',  ( -1.000000000000000000, 0.000000000000000000, 0.000000000000000000 ) ) ;
#300 = PERSON_AND_ORGANIZATION_ROLE ( 'classification_officer' ) ;
#301 = FACE_OUTER_BOUND ( 'NONE', #81, .T. ) ;
#302 = VECTOR ( 'NONE', #218, 1000.000000000000000 ) ;
#303 = APPROVAL_ROLE ( '' ) ;
#304 = CARTESIAN_POINT ( 'NONE',  ( 0.000000000000000000, 0.000000000000000000, 5.200000000000009948 ) ) ;
#305 = PRODUCT_DEFINITION ( 'NEZNÁMÝ', '', #145, #196 ) ;
#306 = COORDINATED_UNIVERSAL_TIME_OFFSET ( 1, 0, .AHEAD. ) ;
#307 = DIRECTION ( 'NONE',  ( 1.000000000000000000, 0.000000000000000000, -0.000000000000000000 ) ) ;
ENDSEC;
END-ISO-10303-21;
